Os Paralamas do Sucesso

Lanterna Dos Afogados

Os Paralamas do Sucesso

649 exibições
(intro  3x)

(verso 1)


E|-----------|-----------|-----------|---------------------|     |---7---|
B|--------7--|--------6--|--------6--|-----------7---------|     |---7---|
G|-----6-----|-----6-----|-----6-----|--------6------6-----|     |-------|
D|--9--------|--9--------|--8--------|-----8---------------|     |---9---|
A|-----------|-----------|-----------|--6------------------|     |---7---|
E|-----------|-----------|-----------|---------------------|     |-------|


(solo de piano adaptado para guitarra)

E|-----------------------------------------------------------------|
B|-----------------------------------------------------------------|
G|---------------11----11---------11----13-------------------------|
D|---11-13--15----------------15------------11---11---------11-----|
A|-----------------------------------------------------------------|
E|-----------------------------------------------------------------|



E|--------------------------------------------------------------|
B|-14----12--11h12h14------------------14--14-------------------|
G|-----------------------11----11----------------11------13-----|
D|--------------------------------------------11-----11------11-|
A|--------------------------------------------------------------|
E|--------------------------------------------------------------|



E|------------------------------------------------------------|
B|------16--14---12h14--11-----11h12h14-----------------------|
G|----------------------------------------11----11------------|
D|-11---------------------------------------------------------|
A|------------------------------------------------------------|
E|------------------------------------------------------------|



E|-------------------------------------------------------------------------|
B|---------------------------------------------------------------14--------|
G|-----------11--11-----------------------------11------13-----------------|
D|-11-13-15------------15--13--11---11-------11-----11-------11------------|
A|-------------------------------------------------------------------------|
E|-------------------------------------------------------------------------|



E|--------------------|  |--19----14--16----12---|
B|--12--11h12h14------|  |-----17--------17------|
G|---------------11---|  |-----------------------| (5x)_
D|--------------------|  |-----------------------|
A|--------------------|  |-----------------------|
E|--------------------|  |-----------------------|


(parte 1)

(guitarra)

        7x      7x
E|---7-------7-------7---|
B|---7-------7-------7---|
G|---9---9---9---9---9---|
D|---9---9---9---9---9---|
A|---7---7---7---7---7---|
E|-----------------------|


(solo de sax p/ guitarra)

E|----------------------------------------------|
B|-16p14-16p14-16---------16-14-12----12--------|
G|----------------11-13------------15-----------|
D|----------------------------------------------|
A|----------------------------------------------|
E|----------------------------------------------|


(verso 2) (repete intro)

(guitarra)

        7x
E|---7-------7-------|
B|---7-------7-------|
G|---9---9---9---9---|
D|---9---9---9---9---|   (2x)
A|---7---7---7---7---|
E|-------------------|


(sax adaptado para guitarra)

E|----------------------------------------------|
B|-16p14-16p14-16---------16-14-12----12--------|
G|----------------11-13------------15-----------|
D|----------------------------------------------|
A|----------------------------------------------|
E|----------------------------------------------|


(guitarra)

E|-----------------------------------9---|
B|---4---6---4---6---7---4-----------9---|
G|---4---6---4---6---6---4----------11---|
D|---4---6---4---6---4---4---4------11---|
A|---2-------2-----------2---4-------9---|
E|-------7-------7---6-------2-----------|


(verso 3) (repete intro)

(solo)

(base)

E|-----------|-----------|-----------|---------------------|
B|--------7--|--------6--|--------6--|-----------7---------|
G|-----6-----|-----6-----|-----6-----|--------6------6-----|
D|--9--------|--9--------|--8--------|-----8---------------|
A|-----------|-----------|-----------|--6------------------|
E|-----------|-----------|-----------|---------------------|


(solo)

E|-----------------------------------------------|------------------|
B|--14---------------14--------------------------|------------------|
G|--13b(13)--11-13b~~---13b(13)~-13b(13)--11-----|-----11-----10~\--|
D|-----------------------------------------------|------------------|
A|--------------------------------------------13~|--13----13--------|
E|-----------------------------------------------|------------------|



E|-------14-------------------11-----|-11---------13~--11---------14~-|
B|--14b------14b--14--11--14b----14~~|-----14--11----------14--11-----|
G|-----------------------------------|--------------------------------|
D|-----------------------------------|--------------------------------|
A|-----------------------------------|--------------------------------|
E|-----------------------------------|--------------------------------|



E|------14-------13~--11------|
B|--11-------11-----------14--|
G|----------------------------|
D|----------------------------|
A|----------------------------|
E|----------------------------|



E|------------11---------11--------11------|--11----------------------|
B|----14b--------14b--------14b--------14b-|------14b--14b--14b--14b--|
G|-----------------------------------------|--------------------------|
D|-----------------------------------------|--------------------------|
A|-----------------------------------------|--------------------------|
E|-----------------------------------------|--------------------------|



E|------------------------------------------------14----------------|
B|--14---14b---14b--14b--14b--14b--14b--14b--14b------14b-----------|
G|------------------14b--14b--14b--14b--14b----------------13hr\----|
D|------------------------------------------------------------------|
A|------------------------------------------------------------------|
E|------------------------------------------------------------------|



E|-------19b--------19-18-16--------------------------|
B|--16-----------------------19-16-19----16-19-16~~\\-|
G|------------------------------------18--------------|
D|----------------------------------------------------|
A|----------------------------------------------------|
E|----------------------------------------------------|



E|--14------------------------------------------------------------|
B|-----14---------------------------------------------------------|
G|--------13b--13--11--13--13b---11--13~--11-------13--11---------|
D|--------------------------------------------13------------13----|
A|----------------------------------------------------------------|
E|----------------------------------------------------------------|



E|--------------|
B|----14p11~----|
G|--------------| (repete até o final)
D|--------------|
A|--------------|
E|--------------|


(verso 1)
Quando tá escuro e ninguém te ouve
Quando chega a noite e você pode chorar
Há uma luz no túnel dos desesperados
Há um cais de porto pra quem precisa chegar
Eu tô na lanterna dos afogados
Eu tô te esperando, vê se não vai demorar

(verso 2)
Uma noite longa por uma vida curta
Mas já não me importa basta poder te ajudar
E são tantas marcas que já fazem parte
Do que sou agora  mas ainda sei me virar
Eu tô na lanterna dos afogados
Eu tô te esperando  vê se não vai demorar

(verso 3)
Uma noite longa por uma vida curta
Mas já não me importa, basta poder te ajudar
Eu tô na lanterna dos afogados
Eu tô te esperando...


Enviada por Sem inscrição
Nº de acordes: 0