Nirvana

Come As You Are

Nirvana

5.416 exibições
Tom: F#m

Intro: 
E|-----------------------------------------------------------|
B|-----------------------------------------------------------|
G|-----------------------------------------------------------|
D|-----------------------------------------------------------|
A|---------0---0---------2----2--------0---0---------2----2--| (x4)
E|-0-0-1-2---2---2-2-1-0--0-0---0-1-2---2---2-2-1-0---0-0----|

Come as you are
As you were, as I want you to be
As a friend
As a friend, as an old enemy
Take your time
Hurry up, the choice is your, don't be late
Take a rest
As a friend, as an old...

F#m  B A   
Memory      (4x)

(acompanhamento para o REFRÃO 1 dedilhado)

         F#m           A           F#m           A

E|-----------------------------------------------------------|
B|-----------------------------------------------------------|
G|-----------------------------------------------------------|
D|-----------------------------------------------------------|
A|---------0---0---0-----2--2--------0---0--------2----2-| (x4)
E|-0-0-1-2---2---2---1-0---0---0-0-1-2---2---2-2-1-0--0-0----|

depois começa o dedilhado do verso e continua...

E|-----------------------------------------------------------|
B|-----------------------------------------------------------|
G|-----------------------------------------------------------|
D|-----------------------------------------------------------|
A|---------0---0---0-----2~--2~--------0---0--------2~----2~-| (x2)
E|-0-0-1-2---2---2---1-0---0---0-0-1-2---2---2-2-1-0--0-0----|

Come doused in mud
Soaked in bleach, as I want you to be
As a trend
As a friend, as an old...

F#m  B A
Memory      (4x)   
          
B5       D5             B5            D5
  And I swear that I don't have a gun
       B5            D5
No, I don't have a gun
       B5            D5
No, I don't have a gun

(acompanhamento para o REFRÃO 2 dedilhado)

        F#m           A           F#m           A
E|----------------------------------------------------------|
B|----------------------------------------------------------|
G|----------------------------------------------------------|
D|-----------4---4---------7---7-------4---4---------7---7--|
A|---------4-------------7-----------4-------------7--------|  (2x)
E|-0-0-1-2-----2---2-2/5-----5---0-2-----2---2-2/5-----5----|

     B            D           B           D
E|----------------------------------------------------------|
B|----------------------------------------------------------|
G|-------4---4---------7---7-------4---4---------7---7------|
D|-----4-------------7-----------4-------------7------------|
A|-0-2-----2---2-2/5-----5---0-2-----2---2-2/5-----5--------|  (2x)
E|----------------------------------------------------------|

 Intro: 1x

Solo:
e|-------------------------------------------------------------------------------|
B|-------------------------------------------------------------------------------|
G|--6-6~--9-11-11--6~--9-11-11--6~--9-11--13b-13b-13b-11-9-9---------------------|    
D|-------------------------------------------------------------------------------|(4x)
A|-------------------------------------------------------------------------------|
E|-------------------------------------------------------------------------------|

F#m  A  F#m  A  F#m  A  F#m  A                    REFRÃO 3
Memory, memory, memory, memory

B5      D5            B5            D5
  And I swear that I don't have a gun
       B5            D5
No, I don't have a gun
       B5            D5
No, I don't have a gun
       B5            D5
No, I don't have a gun
       B5            D5
No, I don't have a gun

(acompanhamento para o REFRÃO 2 dedilhado)

        F#m           A           F#m           A
E|----------------------------------------------------------|
B|----------------------------------------------------------|
G|----------------------------------------------------------|
D|-----------4---4---------7---7-------4---4---------7---7--|
A|---------4-------------7-----------4-------------7--------|  (2x)
E|-0-0-1-2-----2---2-2/5-----5---0-2-----2---2-2/5-----5----|

     Bm            D           Bm            D
E|----------------------------------------------------------|
B|----------------------------------------------------------|
G|-------4---4---------7---7-------4---4---------7---7------|
D|-----4-------------7-----------4-------------7------------|
A|-0-2-----2---2-2/5-----5---0-2-----2---2-2/5-----5--------|  (3x)
E|----------------------------------------------------------|

                                                                   F#
E|-----------------------------------------------------------------2-|  Termine tocando um
B|-----------------------------------------------------------------2-|  F# uma corda de 
G|-----------------------------------------------------------------3-|  cada vez para dar
D|-----------------------------------------------------------------4-|  um efeito legal..
A|---------0---0---0-----2~--2~--------0---0--------2~----2~-------4-|
E|-0-0-1-2---2---2---1-0---0---0-0-1-2---2---2-2-1-0--0-0----0-0-1-2-|

Memory
Memory


Enviada por tinho
Nº de acordes: 8