E||-----------|------------|----------|-------||
B||o----------|------------|----------|------o||
G||-----------|------------|-4--------|-------||
D||-----------|------------|----------|-4-----||
A||o-7--------|-(7)--------|-5--------|-6----o||
E||--0--------|-(0)--------|----------|-------||

    intro
E||------------------|-------------------|-----------------|-------------------||
B||o-----------------|-------------------|-----------------|------------------o||
G||------------------|-------------------|-----------------|-------------------||
D||--5-----5-----5---|--4------5-----5---|-4-----4-----4-4-|-4-----4-----4-4---||
A||o-7-----7-----7---|--7------7-----7---|-5-----5-----5-5-|-6-----6-----6-6--o||
E||----0-0---0-0---0-|-----0-0---0-0---0-|---7-7---7-7-----|---7-7---7-7-------||

   passagem
E|----------------------------------|---------------------------------|
B|----------------------------------|---------------------------------|
G|o---------2-----------4-----------|-5-------------------------------|
D|o-2-2-2-2-----2-2-2-2-----2-2-2-2-|-----2-2-2-2-2---2-2-3---3-3-2---|
A|----------------------------------|---------------------------------|
E|----------------------------------|---------------------------------|
                                           4x
|---------------------------------|----------------------------------||
|---------------------------------|----------------------------------||
|---------5-----------4-----------|-2-------------------------------o||
|-2-2-2-2-----2-2-2-2-----2-2-2-2-|-----2-2-2-2-2---2-2-3---3-3-2---o||
|---------------------------------|----------------------------------||
|---------------------------------|----------------------------------||

  passagem guitarra 2
|---------------------|----------|--------------------|-------||
|o--------------------|----------|--------------------|------o||
|----------2----------|-5--------|---------5----------|-2-----||
|----------2------2---|-5--------|---------5------2---|-2-----||
|o---------0------2---|-3--------|---------3------2---|-0----o||
|--0-0-0-0--------0---|----------|-0-0-0-0--------0---|-------||

|-------------------||----------------------------|---------------------------|
|-------------------||o---------------------------|---------------------------|
|-2-----------------||--------2---------4---------|-5-------------------------|
|-2-----------------||--------2---------2---------|-5-------------------------|
|-0-----------------||o-------0---------2---------|-3-------------------------|
|-----0-0-0-1-1-1-0-||--0-0-0---0-0-0-0---0-0-0-0-|---0-0-0-0-0-0-0-1-1-1-0---|

  solinho
|-------------------------|---------------------------|--------------------|
|-------------------------|---------------------------|--------------------|
|-------------------------|---------------------------|--------------------|
|-----4h5p4---4-4h5p4-----|-------4h5p4---4-4h5p4-----|---------5-5-4------|
|-----------7---------7---|-------------7---------7---|---------------5----|
|-------------------------|---------------------------|--------------------|

|-------------------|---------------------------|----------------------------|
|-------------------|---------------------------|----------------------------|
|-------------------|---------------------------|----------------------------|
|---------5-5-4-4---|-------4h5p4---4-4h5p4-----|-------4h5p4---4-4h5p4------|
|-------------------|-------------7---------7---|-------------7---------7----|
|-------------------|---------------------------|----------------------------|

|-------------------|-------------------||----------------------|
|-------------------|-------------------||----------------------|
|-------------------|-------------------||----------------------|
|-------------------|-------------------||-4/5--5/7-7/9-9/12-|
|-------------------|-------------------||----------------------|
|-------------------|-------------------||----------------------|

|------------------------------|---------------------------|
|------------------------------|---------------------------|
|---------------------12-14b16-|--------14---12---11-11h12-|
|-12/14-14-14------14----------|---------------------------|
|------------------------------|---------------------------|
|------------------------------|---------------------------|

|------------------------|-------------------------------|
|---------------------15-|-15-------------------------12-|
|------11----------12----|-14b16---14b16-14--------14----|
|---------12-------------|-------------------------------|
|------------------------|-------------------------------|
|------------------------|-------------------------------|

|----------------------------------------12-|
|-15b17~~15-15r-15b17~~15-15r-15b17---15----|
|-------------------------------------------|
|-------------------------------------------|
|-------------------------------------------|
|-------------------------------------------|

|-15-14-12-15-14-12-15-14-12-15-14-12-15p14p12-15p12-|-17b19---17b19---17b19~~17r---------------|
|----------------------------------------------------|--------------------------------17b19~~17r|
|----------------------------------------------------|------------------------------------------|
|----------------------------------------------------|------------------------------------------|
|----------------------------------------------------|------------------------------------------|
|----------------------------------------------------|------------------------------------------|

|--------------------------------------------------------------|
|---------17b19---17p15----15-17b19~~~17r-17p15----15----------|
|-----------------------14----------------------16----16-------|
|--------------------------------------------------------------|
|--------------------------------------------------------------|
|--------------------------------------------------------------|

|----------------------------------------------|
|----15-19----15-19----15-19----15-19----15-19-|
|-16-------16-------16-------16-------16-------|
|----------------------------------------------|
|----------------------------------------------|
|----------------------------------------------|

|-17b19---17b19-17--------14-15-|
|-------------------------------|
|-------------------------------|
|-------------------------------|
|-------------------------------|
|-------------------------------|

|-17-15-14-15-14h15-12h14-10h12-8h10-|-7h8-5h7-3h5-2h3-2---3p2---|
|------------------------------------|-------------------------5-|
|------------------------------------|---------------------------|
|------------------------------------|---------------------------|
|------------------------------------|---------------------------|
|------------------------------------|---------------------------|

|-------------------------|---------------------|----------------------------|
|-3---3-5b7r5-5p3---------|-3h5--3--------2---3-|----------------------------|
|---4-------------------4-|---------------------|--4h6p4h6p4h6p4h6p4h6p4-----|
|-------------------------|---------------------|----------------------------|
|-------------------------|---------------------|----------------------------|
|-------------------------|---------------------|----------------------------|

|-------------------------------------------------------|
|-------------------------------------------------------|
|-4--4-4-4--4--4-4-4------------------------------------|
|-4--4-4-4--4--4-4-4--4--4-4-4--------------------------|
|-2--2-2-2--0--0-0-0--4--4-4-4--2-----------------------|
|---------------------2--2-2-2--0-----------------------|

|--------------------------------------------|
|o-------------------------------------------|
|---9b11--------9b11r~~9--6h9-6--------------|
|--------------------------------------------|
|o-------------------------------------------|
|--------------------------------------------|

|--------------------------------------|
|--------------------------------------|
|--9b11----9b11r~9-6h9--6--------------|
|------------------------------7-7-7---|
|--------------------------------------|
|--------------------------------------|

|---------------------------------------------|
|---------------------------------------------|
|--9b119r9b11-9b11r9b11r9--6h~9--6------------|
|---------------------------------7-7-7-6-6---|
|---------------------------------------------|
|---------------------------------------------|

|--------------|----------------------------------------|
|--------------|----------------------------------------|
|--------------|----------------------------------------|
|-7-6-6h7/9----|------------7h9-9/11-9-7h9-9/11---7-7---|
|--------------|-/9-----7h9---------------------9-------|
|--------------|----------------------------------------|


|--------------------------------------|--------------|
|--------------------------------------|--------------|
|---9b11r9b11--9b11r9b11r9--------6h=9-|-6------------|
|--------------------------------------|---7-7-7-6-6--|
|--------------------------------------|--------------|
|--------------------------------------|--------------|

|------------------|-----------------|-----------------|---------------|
|------------------|-----------------|-----------------|---------------|
|------------9-9-9-|-9-9--9--9-9-6-6-|-7-7-7---------6-|-6-------------|
|-7-6-6h7s=9-------|-----------------|-------9-7-6-7---|-7-------------|
|-9-7-7h9s11-------|-----------------|-----------------|---------------|
|------------------|-----------------|-----------------|---------------|

|---------------------------|--------------------|
|---------------------------|--------------------|
|-(6)------9--9--9--9--9--9-|--9--9--9--9--9-6-6-|
|-(7)-----11-11-11-11-11-11-|-11-11-11-11-11-7-7-|
|---------------------------|--------------------|
|---------------------------|--------------------|

|---------------------|----------------|
|---------------------|----------------|
|--7--7--7----------6-|-6--------------|
|--9--9--9--9-7-6-7-7-|-7--------------|
|----------11-9-7-9---|----------------|
|---------------------|----------------|

|---------------------|---------------|---------------------|----------------|
|---------------------|-2-------------|-(2)-----(2)---------|----------------|
|-(6)-----4b6r==(4)p2-|-2-------------|-(2)-----(2)-------2-|----------------|
|-(7)-----------------|---------------|---------------2-2---|-4--------------|
|---------------------|---------------|---------------------|----------------|
|---------------------|---------------|---------------------|----------------|

|------------------||-----------------------|
|------------------||-----------------------|
|------------------||---------6---6---6-9-6-|
|-(4)--------------||------7----7---7-------|
|---------/12-----||-9-9--------------------|
|---------/12-----||------------------------|

|-------------------|-----------------------|
|-------------------|-----------------------|
|-7-7---------------|---------6---6---6-9-6-|
|-----9-6-----6-9-6-|-7----7----7---7-------|
|---------7-7-------|---9-------------------|
|-------------------|-----------------------|

|-------------------|----------------------------|--------------------------|
|-------------------|-----------------------10---|--------------------------|
|-------------------|-----------9----9----9----9-|-11-11--------------------|
|-------------------|-11----11----11---11--------|-------12-9-------9-12-9--|
|-------------------|----12----------------------|------------11-11---------|
|-------------------|----------------------------|--------------------------|

|----------------------------|
|-----------------------10---|
|-----------9----9----9----9-|
|-11----11----11---11--------|
|----12----------------------|
|----------------------------|

|----------------------------------||--------------------|
|----------------------------------||o-------10------10s=|
|-11-11-11-11----------------------||------9----9--9-----|
|-------------12-9-12-------9-12-9-||--11----------------|
|---------------------11-11--------||o-------------------|
|----------------------------------||--------------------|

                4x
|-----------------||-------------------------------------|
|-7--7-10--------o||-------------------------------------|
|---------9--9-9--||-------------------------------------|
|-----------------||-------------11----------11-12-14-11-|
|----------------o||-12-11-12-14----11-12-14-------------|
|-----------------||-------------------------------------|

|-------------------------12-14-15s17-|
|----------------12-14-15-------------|
|-------11-13-14----------------------|
|-12-14-------------------------------|
|-------------------------------------|
|-------------------------------------|

|--17--17-17-14-17p14-14h17-14-----|
|-------------------------------17-|
|----------------------------------|
|----------------------------------|
|----------------------------------|
|----------------------------------|

|-----------------------------------|----------------------|
|-------------------------17--------|--7-7-9-10-10h12-10-9-|
|-18p16----------16-16b18----16b18--|----------------------|
|-------19p16-19--------------------|----------------------|
|-----------------------------------|----------------------|
|-----------------------------------|----------------------|

|-----------------------------------------|
|----------9h10h12-(12)-/14-12-12-10-9-10-|
|-6s7h9h11--------------------------------|
|-----------------------------------------|
|-----------------------------------------|
|-----------------------------------------|

|--------------------------------|----------------------------||
|--9-----------------------------|----------------------------||
|----9---------------------------|----------------------------||
|------9-7-9-[9]b11r(9)p7------7-|-9-7-9-7-9b11r(9)p7---------||
|-------------------------9--9---|--------------------9-(9)---||
|--------------------------------|----------------------------||

|---------------|---------|----------|---------|
|---------------|---------|----------|---------|
|---------------|---------|----------|---------|
|-7b9r=(7)--5---|---------|----------|---------|
|---------------|---------|----------|---------|
|---------------|---------|----------|---------|

|--------------------------|-------------------------|
|-3-----3------------------|-1-----1-----------------|
|---4-----4----4-----4-----|---2-----2---2-------2---|
|-----5-----5----5-----5---|-----4-----4---4---4---4-|
|------------------7-----7-|-----------------5-------|
|--------------------------|-------------------------|

|-----------------------------------------|
|-----------------------------------------|
|-11b12-11-9-11b12r(11)--9-11-11p9s7-9-7--|
|-----------------------------------------|
|-----------------------------------------|
|-----------------------------------------|

|-----------------------------|------||---------------|--------------|
|-----------------------------|------||---------------|--------------|
|-9-7h9p7s5-7-5-4-5-4-2-4-5-4-|------||---------------|--------------|
|-----------------------------|-5-5--||---------------|--------------|
|-----------------------------|------||---------------|--------------|
|-----------------------------|------||---------------|--------------|

|------------|----------||--------------------------------------|
|------------|----------||-10b12---10b12---10b12---10b12-10b12==|
|------------|----------||--------------------------------------|
|------------|----------||--------------------------------------|
|------------|----------||--------------------------------------|
|------------|----------||--------------------------------------|

|--------------------------------------------|
|-(10)r-10b12-10b12-10b12-10b12-10b12---10p7-|
|--------------------------------------------|
|--------------------------------------------|
|--------------------------------------------|
|--------------------------------------------|

|--------------------------------------------------|
|------7-10p7-10b12-10-10p7------7-10p7-10b12-10-7-|
|-9b11----------------------9b11-------------------|
|--------------------------------------------------|
|--------------------------------------------------|
|--------------------------------------------------|

|-10p7---10p7---10p7---10p7---10p7---10p7-|
|------7------7------7------7------7------|
|-----------------------------------------|
|-----------------------------------------|
|-----------------------------------------|
|-----------------------------------------|

|-10b12---10b12-10-(10)-7-10-10b12-|-(10)---10b12-10-(10)-----10p7-|
|-----------------------7----------|-------------------------------|
|----------------------------------|-------------------------------|
|----------------------------------|-------------------------------|
|----------------------------------|-------------------------------|
|----------------------------------|-------------------------------|

|-10p7-------------------------------|
|------10p7-10p7---------------------|
|----------------9p7-9p7-------------|
|------------------------9p7-9p7-----|
|--------------------------------9p8-|
|------------------------------------|

|----------------------------|------------------------------|
|----------------------------|---------------------------19-|
|----------------------------|---------------7--------------|
|----------------------------|-----------7h9---9-(9)-/21----|
|-7p5h7-5---7p5-7p5---5-(5)--|-----5-7s9--------------------|
|---------7---------7--------|-5h7--------------------------|

|--------------------------------22b24-22p19-------19-22p19-|
|-------19-22-22b24==(22)r-22p19-------------22b24----------|
|-21b23-----------------------------------------------------|
|-----------------------------------------------------------|
|-----------------------------------------------------------|
|-----------------------------------------------------------|

|-------19-------19-------19-------19-------19-------19-------19-------19-|
|-22b24----22b24----22b24----22b24----22b24----22b24----22b24----22b24----|
|-------------------------------------------------------------------------|
|-------------------------------------------------------------------------|
|-------------------------------------------------------------------------|
|-------------------------------------------------------------------------|

|------------------------------------------------------------|
|-------19-22-19----19-22p19------19-22p19------19-22-22b24--|
|-21b23----------21------------21----------21----------------|
|------------------------------------------------------------|
|------------------------------------------------------------|
|------------------------------------------------------------|

|---------------------------------|---------------------------------|
|---------------------------------|---------------------------------|
|---[7]-[7]-----[7]-[7]-----[7]b9-|-----[7]-[7]-----[7]-[7]-----7p6-|
|-----------7h9---------7h9-------|-7h9---------7h9---------7h9-----|
|---------------------------------|---------------------------------|
|---------------------------------|---------------------------------|

|------------------------------------|
|------------------------------------|
|-7p6---7p6---7p6---7p6---7p6---7p6S=|
|-----9-----9-----9-----9-----9------|
|------------------------------------|
|------------------------------------|

|------------------------||----------------------------|
|------------------------||o---------------------------|
|-4p2p0-4p2p0-4p2-2------||----------------------------|
|-------------------2-2--||----------------------------|
|------------------------||o---------------------------|
|------------------------||----------------------------|

|------------------------||----------------------------|
|------------------------||o---------------------------|
|------------------------||--------2---------4---------|
|-2---2---------------2--||--------2---------2---------|
|-2---2---------------2--||o-------0---------2---------|
|-0---0---0---0---0-0-0--||--0-0-0---0-0-0-0---0-0-0-0-|

|-------------------------|
|-------------------------|
|-5-----------------------|
|-5-----------------------|
|-3-----------------------|
|---0-0-0-0-0-0-0-1-1-1-0-|

                                                       6x
|---------------------------|--------------------------||
|---------------------------|-------------------------o||
|-------5---------4---------|-2------------------------||
|-------5---------2---------|-2------------------------||
|-------3---------2---------|-0-----------------------o||
|-0-0-0---0-0-0-0---0-0-0-0-|---0-0-0-0-0-0-0-1-1-1-0--||

|----------------------------|
|----------------------------|
|-------2---------4----------|
|-------2---------2----------|
|-------0---------2----------|
|-0-0-0---0-0-0-0---0-0-0-0--|

|-------------------------|---------------------------|-----------------*|
|-------------------------|---------------------------|-----------------*|
|-5-----------------------|-------5---------4---------|-2---------------*|
|-5-----------------------|-------5---------2---------|-2---------------*|
|-3-----------------------|-------3---------2---------|-0---------------*|
|---0-0-0-0-0-0-0-1-1-1-0-|-0-0-0---0-0-0-0---0-0-0-0-|---0-0-0-0-0-----*|



Enviada por Sem inscrição
Nº de acordes: 0