Metallica

Enter Sandman

Metallica

4.485 exibições
Intro:   (Toque 6 vezez)
======

1|---------------------------|
2|---------------------------|
3|---------------------------|
4|--------5-------------5----|
5|-----7--------7----7-------|
6|--0-------6-5---0-------6-5|


Rhythm Fill 1:
==============

   E5

        PM------------------|   sl   PM----------------------|  sl

1|---------------------------------------------------------------------------
2|---------------------------------------------------------------------------
3|---------------------------------------------------------------------------
4|---------------------------------------------------------------------------
5|--2---------------------------/7------------------------------/7-----------
6|--0---0---0---0---0---0---0--------0---0---0---0---0---0---0---------------

                                     |-------------3x------------|



                              F5 E5                              *F5 E5

    PM--|          PM------|    P     PM--|               PM--|     P

1|--------------------------------------------------------------------------
2|--------------------------------------------------------------------------
3|--------------------------------------------------------------------------
4|--------------------------------------------------------------------------
5|----------7-------------------3-------------7---------------------3-------
6|--0---0------6---0---0---0----1-----0---0-------6---5---0---0-----1-------

    |-------------4x-------------|     |--------------8x-------------|


Rhythm Fill 2: (2 vezes)
==============

   E5                        G5  E5  G5  E5 F#5  G5 F#5

             sl       V          PM------------------|

1|---------------------------------------------------------------------------
2|---------------------------------------------------------------------------
3|---------------------------------------------------------------------------   
4|---------------------------------------------------------------------------
5|--2---2----/7--------------5-------5-------5---4---2-----------------------
6|--0---0---------6---5------3---0---3---0---3---2---0-----------------------

    |-------3x--------|


Rhythm Fill 3: 
=============

    E5                          F5 E5                              F5 E5

        PM------------------|     P    PM-----------------------|   P

1|---------------------------------------------------------------------------
2|---------------------------------------------------------------------------
3|---------------------------------------------------------------------------
4|---------------------------------------------------------------------------
5|--2----------------------------3---------------------------------3---------
6|--0---0---0---0---0---0---0----1-----0---0---0---0---0---0---0---1---------

   E5                              G5  E5  G5  E5 F#5  G5 F#5


    PM----------------------|          PM-----------|

1|---------------------------------------------------------------------------
2|---------------------------------------------------------------------------
3|---------------------------------------------------------------------------
4|---------------------------------------------------------------------------
5|---------------------------------5-------5-------5---4---2-----------------
6|--0---0---0---0---0---0---0------3---0---3---0---3---2---0-----------------


Say your prayers, little one
Don't forget, my son
To include everyone

(Repita "Rhythm Fill 3" denovo)

Tuck you in, warm within
Keep you free from sin
Till the sandman comes

Bridge:
=======

                          F#5                  E5  F5  F#5

                           PM--------------------------|

1|---------------------|-----------------------------------------------------
2|---------------------|-----------------------------------------------------
3|---------2-----------|-----------------------------------------------------
4|-----4--------------4|-----------------------------------------------------
5|-------------3---2---|---4---4---4---4---4---2---3---4---------------------
6|--2------------------|---2---2---2---2---2---0---1---2---------------------

    |------4x------|      |--------guitarra solo---------|  (na quarta vez do dedilhado)

Sleep with one eye open
Gripping your pillow tight

Chorus Fill:
============

  F#5  C5  B5    F#5  C5  B5   F#5  C5  B5  E5

                                                 PM-----------|

1|---------------------------------------------------------------------------
2|---------------------------------------------------------------------------
3|----------------------------------------------------------------2----------
4|------5---4---------5---4---------5---4---------5---2---5---2-------2------
5|--4---3---2-----4---3---2-----4---3---2----2-------------------------------
6|--2-------------2-------------2------------0-------------------------------

Exit light
Enter night

  F#5  C5  B5   E5                            G5              F5  G5

                      PM----------|            PM----------|

1|---------------------------------------------------------------------------
2|---------------------------------------------------------------------------
3|------------------------------------2--------------------------------------
4|------5---4---------5---2---5---2-------2----------------------------------
5|--4---3---2-----2----------------------------5-------5-------4---5---5-----
6|--2-------------0----------------------------3---0---3---0---2---3---3-----


Take my hand
We're off to never never land

(Repita "Rhythm Fill 2" duas vezes)

(Repita "Rhythm Fill 3" duas vezes)

Something's wrong, shut the light
Heavy thoughts tonight
And they aren't of Snow White
Dreams of War, dreams of lies
Dreams of dragon's fire
And of things that will bite, yeah!

(Repita "Bridge")

Sleep with one eye open
Gripping you pillow tight

(Repeta "Chorus Fill")

Exit light
Enter night
Take my hand
Off to never-never land



Solo Fill:
==========

1|--------------------------------|------------------------------|
2|--15--15--15----------------15--|----15--15--------15b---15b---|
3|--14b-14b-14b-14--14b-14----14b-|----14--14--14p12-------------|
4|--------------------------------|------------------------------|
5|--------------------------------|------------------------------|
6|--------------------------------|------------------------------|


1|--------------------------------------------------|
2|--------------------------------------------------|
3|--12/14-14-14-1412-12-12-12/14-14-14-1412-12-12---|
4|--------------------------------------------------|
5|--10/12-12-12-1210-10-10-10/10-10-10-1010-10-10---|
6|--------------------------------------------------|



1|--------------------------------------|
2|--------------------------------------|
3|--14-12-------------------------------|
4|--------14--14p12---------------------|
5|------------------14--14p12-----------|
6|----------------------------15--12~---|



1|-----12----12----12----12----12----12----12----12-|
2|--15b---15b---15b---15b---15b---15b---15b---15b---|
3|--------------------------------------------------|
4|--------------------------------------------------|
5|--------------------------------------------------|
6|--------------------------------------------------|



1|-----12----12h15p12----12h15p12----12h15p12----12-15-12-12-14-14-|
2|--15b---15b---------15----------15----------15-------------------|
3|-----------------------------------------------------------------|
4|-----------------------------------------------------------------|
5|-----------------------------------------------------------------|
6|-----------------------------------------------------------------|



1|--17p14----17p14----17p14-19p15----19p15----19p15-|
2|--------15-------15-------------17-------17-------|
3|--------------------------------------------------|
4|--------------------------------------------------|
5|--------------------------------------------------|
6|--------------------------------------------------|



1|--21p17----21p17p0-21p17-22b---------|--------------------|
2|--------17------------------------9b-|------9b-----9b-----|
3|----------------------------------9b-|------9b-----9b-----|
4|-------------------------------------|--------------------|
5|-------------------------------------|--------------------|
6|-------------------------------------|--------------------|



1|---------------------------|-------------------------------|
2|--9b---9b---------------10~|------10-8-7---8p7---7---------|
3|--9b---9b---7---------7----|-------------9-----9---9-7---7-|
4|--------------9~--7h9------|---------------------------9---|
5|---------------------------|-------------------------------|
6|---------------------------|-------------------------------|



1|--------------------------------|--------------------------------------|
2|--------------------------------|--------------------------------------|
3|--9p7---------------------------|--16b-14---------14-16b-14~--------14-|
4|------9p7---7-9p7---------------|----------16--16------------16--16----|
5|----------9-------9-8-7-5-------|--------------------------------------|
6|--------------------------7--5--|--------------------------------------|



1|--------------------------------------|----------------------------------|
2|--------------------------------------|------17-------17-17------17--17--|
3|--16b-14~--------14-16b-14---------14-|--16b----16-16b---16b---------16b-|
4|----------16--16------------16~-16----|----------------------------------|
5|--------------------------------------|----------------------------------|
6|--------------------------------------|----------------------------------|




1|----------------------------|--21p17p0-21p17p0-21p17p0-21p17p0-21p17p0-21p17p0-|
2|----------------------------|--------------------------------------------------|
3|------16--16----16--16------|--------------------------------------------------|
4|------------------------20--|--------------------------------------------------|
5|----------------------------|--------------------------------------------------|
6|----------------------------|--------------------------------------------------|



1|--22b-22b22b22b-22b22b22b-------|----5p3p0---------------------|
2|--------------------------------|----------5--5p3-0------------|
3|--------------------------------|--------------------4p2-0--2b-|
4|--------------------------------|------------------------------|
5|--------------------------------|------------------------------|
6|--------------------------------|------------------------------|



1|-----------------------|--------------------|-------------------------|
2|-----------------------|--------------------|-------------------------|
3|--0--------------------|--------------------|-------------------------|
4|----2~-----------0h2p0-|--------------------|-------------------------|
5|-----------------------|--4~-------------0--|--2----2--2--2--2--2--2--|
6|-----------------------|--------------------|-------------------------|



1|--------------------------|
2|--------------------------|
3|--------------------------|
4|--------------------------|
5|--2--2--2--2--2--2--2-----|
6|-----------------------0--|

(Repita "Rhythm Fill 2" duas vezes)
(Repita "Rhythm Fill 3" duas vezes)
(Repita "Bridge")
(Repita "Chorus Fill")
(Repita Intro 8 vezes)

Now I lay me down to sleep
Pray the lord my soul to keep
If I die before I wake
Pray the lord my soul to take

(Repita Bridge 8 vezes)

Hush little baby, don't say a word
And never mind that noise you heard
It's just the beasts under your bed,
In your closet, in your head


(Repita "Chorus Fill" duas vezes)

Exit light
Enter night
Take my hand
Off to never-never land

(Repita "Rhythm Fill 2" duas vezes)

BOOM!

(Repita "Rhythm Fill 2" quatro vezes)

Outro:
======

   E5                          F5 E5                           F5 E5

        PM              PM--|    P    PM---------------------|    P

1|---------------------------------------------------------------------------
2|---------------------------------------------------------------------------
3|---------------------------------------------------------------------------
4|---------------------------------------------------------------------------
5|--2-------7-------------------3-2-----------7------------------3-2---------
6|--0---0-------6---5---0---0---1---0---0------6---5---0---0---1-------------

                                      |-------------3x-------------|

                              F5 E5

    PM--|          PM------|    P      PM--------------------------|
1|---------------------------------------------------------------------------
2|---------------------------------------------------------------------------
3|---------------------------------------------------------------------------
4|---------------------------------------------------------------------------
5|----------7------------------3-2-------------7-----------------------------
6|--0---0------6---0---0---0---1-----0---0-------0---0---0---0---0-----------

    |------------8x--------------|     |------------4x-------------|

    PM------------------------------|

1|---------------------------------------------------------------------------
2|---------------------------------------------------------------------------
3|---------------------------------------------------------------------------
4|---------------------------------------------------------------------------
5|---------------------------------------------------------------------------
6|--0---0---0---0---0---0---0---0---0----------------------------------------

    |--- Vá diminuindo o som ou tocando mais "leve" até acabar a música ---|


Enviada por Sem inscrição
Nº de acordes: 6