Machinemade God

Your Own Fault

Machinemade God

1 exibições
  • Violão
  • Guitarra
  • Teclado
  • Cavaquinho
  • Contra-baixo
  • Bateria
  • Gaita
  • Guitar Pro
Tuning : C F A# D# G C

intro riff

|-----------------------------------------------------------------------------------------------------|C
|-----------------------------------------------------------------------------------------------------|G
|-----------------------------------------------------------------------------------------------------|D#
|-----------------------------------------------------------------------------------------------------|A#
|-(2)(2)-(2)-(2)-(2)-3-6------------------------------------------------------------------------------|F
|-(0)(0)-(0)-(0)-(0)-1-4------------------------------------------------------------------------------|C

intro riff2 (on the last one NO SQUEAL!)

|-----------------------------------------------------------------------------------------------------|C
|-----------------------------------------------------------------------------------------------------|G
|-----------------------------------------------------------------------------------------------------|D#
|-----------------------------------------------------------------------------------------------------|A#
|-2-(2)(2)(2)3-(2)(2)(2)6-(2)(2)(2)--------------2-(2)(2)(2)3-(2)(2)(2)6-(2)(2)(2)--------------------|F
|-0-(0)(0)(0)1-(0)(0)(0)4-(0)(0)(0)3-1-0-4-1-0---0-(0)(0)(0)1-(0)(0)(0)4-(0)(0)(0)*3------------------|C

you loose yourself always doomed to be alone...




intro riff3

|-----------------------------------------------------------------------------------------------------|C
|-----------------------------------------------------------------------------------------------------|G
|------------------------11-11--------12------9-9-9-9-9-9-9-9-----------------------------------------|D#
|------------------------9--9---------10------7-7-7-7-7-7-7-7-----------------------------------------|A#
|-----/7-7--10-----------7--7---------8-------5-5-5-5-5-5-5-5-----------------------------------------|F
|-0-0----8-----(0)(0)(0)-------(0)(0)---(0)(0)--------------------------------------------------------|C




Verse (stays equal in this first verse)
|-----------------------------------------------------------------------------------------------------|C
|-----------------------------------------------------------------------------------------------------|G
|-----------------------------------------------------------------------------------------------------|D#
|-----------------------------------------------------------------------------------------------------|A#
|-(2)(2)(2)-(2)(2)(2)-(2)(2)(2)-(2)(2)(2)-(2)(2)(2)-(2)(2)(2)-(2)(2)(2)-(2)(2)(2)---------------------|F
|-(0)(0)(0)-(0)(0)(0)-(0)(0)(0)-(0)(0)(0)-(0)(0)(0)-(0)(0)(0)-(0)(0)(0)-(0)(0)(0)---------------------|C

|-----------------------------------------------------------------------------------------------------|C
|-----------------------------------------------------------------------------------------------------|G
|-11-11--------12------9-9-9-9-9-9-9-9----------------------------------------------------------------|D#
|-9--9---------10------7-7-7-7-7-7-7-7----------------------------------------------------------------|A#
|-7--7---------8-------5-5-5-5-5-5-5-5----------------------------------------------------------------|F
|-------(0)(0)---(0)(0)-------------------------------------------------------------------------------|C





Chorus1

|-----------------------------------------------------------------------------------------------------|C
|-----------------------------------------------------------------------------------------------------|G
|-----------------------------------------------------------------------------------------------------|D#
|-----------------------------------4---5---5-5---5---5-5---5---4---4---------------------------------|A#
|-2---22---2---2-2---2--2-----------2-x-3-x-3-3-x-3-x-3-3-x-3-x-2-x-2---------------------------------|F
|-0-x-00-x-0-x-0-0-x-0x-0-x---------------------------------------------------------------------------|C

|-----------------------------------------------------------------------------------------------------|C
|-----------------------------------------------------------------------------------------------------|G
|-----------------------------------------------------------------------------------------------------|D#
|-----------------------------------4---4-------------------------------------------------------------|A#
|-2---22---2---2-2---2--2-----------2-x-2-7---77---7---7-10--10-10--10--------------------------------|F
|-0-x-00-x-0-x-0-0-x-0x-0-x---------------5-x-55-x-5-x-5-8-x-8x-8-x-8---------------------------------|C



Tiny Middle Mosher

|-----------------------------------------------------------------------------------------------------|C
|-----------------------------------------------------------------------------------------------------|G
|-----------------------------------------------------------------------------------------------------|D#
|-----------------------------------------------------------------------------------------------------|A#
|-(6)-(5)-(3)-(6)-(5)-(3)-(6)-(5)-(3)-(6)-(5)-(3)----------------/7------10------*6-------------------|F
|-(4)-(3)-(1)-(4)-(3)-(1)-(4)-(3)-(1)-(4)-(3)-(1)--(000000000000)--(0)(0)--(0)(0)---------------------|C

|-------------------------------------------------------------------x---------------------------------|C
|-------------------------------------------------------------------x---------------------------------|G
|-------------------------------------------------------------------x---------------------------------|D#
|-------------------------------------------------------------------x---------------------------------|A#
|-(2)-(2)-(2)-(2)-(2)-(2)-(2)-(2)-(2)-(2)(2)-(6)-(5)-(3)-(6)-(5)-(3)x---------------------------------|F
|-(0)-(0)-(0)-(0)-(0)-(0)-(0)-(0)-(0)-(0)(0)-(4)-(3)-(1)-(4)-(3)-(1)x---------------------------------|C




Vers 2

|-----------------------------------------------------------------------------------------------------|C
|-----------------------------------------------------------------------------------------------------|G
|-----------------------------------------------------------------------------------------------------|D#
|-----------------------------------------------------------------------------------------------------|A#
|-(2)(2)(2)-(2)(2)(2)-(2)(2)(2)-(2)(2)(2)-(2)(2)(2)-(2)(2)(2)-(2)(2)(2)-(2)(2)(2)---------------------|F
|-(0)(0)(0)-(0)(0)(0)-(0)(0)(0)-(0)(0)(0)-(0)(0)(0)-(0)(0)(0)-(0)(0)(0)-(0)(0)(0)---------------------|C

|-----------------------------------------------------------------------------------------------------|C
|-----------------------------------------------------------------------------------------------------|G
|-11-11--------12------9-9-9-9-9-9-9-9----------------------------------------------------------------|D#
|-9--9---------10------7-7-7-7-7-7-7-7----------------------------------------------------------------|A#
|-7--7---------8-------5-5-5-5-5-5-5-5----------------------------------------------------------------|F
|-------(0)(0)---(0)(0)-------------------------------------------------------------------------------|C

|-----------------------------------------------------------------------------------------------------|C
|-----------------------------------------------------------------------------------------------------|G
|-----------------------------------------------------------------------------------------------------|D#
|-----------------------------------------------------------------------------------------------------|A#
|-(2)(2)(2)-(2)(2)(2)-(2)(2)(2)-(2)(2)(2)-(2)(2)(2)-(2)(2)(2)-(2)(2)(2)-(2)(2)(2)---------------------|F
|-(0)(0)(0)-(0)(0)(0)-(0)(0)(0)-(0)(0)(0)-(0)(0)(0)-(0)(0)(0)-(0)(0)(0)-(0)(0)(0)---------------------|C

|-----------------------------------------------------------------------------------------------------|C
|-----------------------------------------------------------------------------------------------------|G
|-----------------------------------------------------------------------------------------------------|D#
|-9--9--------7-7-------------------------------------------------------------------------------------|A#
|-10-10-------9-9-------0h7h10-0h7h10-0h7h10-0h7h10---------------------------------------------------|F
|-------(0)(0)---(0)(0)-------------------------------------------------------------------------------|C

|-----------------------------------------------------------------------------------------------------|C
|-----------------------------------------------------------------------------------------------------|G
|-----------------------------------------------------------------------------------------------------|D#
|-----------------------------------------------------------------------------------------------------|A#
|-(2)(2)(2)-(2)(2)(2)-(2)(2)(2)-(2)(2)(2)-(2)(2)(2)-(2)(2)(2)-(2)(2)(2)-(2)(2)(2)---------------------|F
|-(0)(0)(0)-(0)(0)(0)-(0)(0)(0)-(0)(0)(0)-(0)(0)(0)-(0)(0)(0)-(0)(0)(0)-(0)(0)(0)---------------------|C

|-----------------------------------------------------------------------------------------------------|C
|-----------------------------------------------------------------------------------------------------|G
|-11-11--------12------9-9-9-9-9-9-9-9----------------------------------------------------------------|D#
|-9--9---------10------7-7-7-7-7-7-7-7----------------------------------------------------------------|A#
|-7--7---------8-------5-5-5-5-5-5-5-5----------------------------------------------------------------|F
|-------(0)(0)---(0)(0)-------------------------------------------------------------------------------|C





Chorus2

|-----------------------------------------------------------------------------------------------------|C
|-----------------------------------------------------------------------------------------------------|G
|-----------------------------------------------------------------------------------------------------|D#
|-----------------------------------4---5---5-5---5---5-5---5---4---4---------------------------------|A#
|-2---22---2---2-2---2--2-----------2-x-3-x-3-3-x-3-x-3-3-x-3-x-2-x-2---------------------------------|F
|-0-x-00-x-0-x-0-0-x-0x-0-x---------------------------------------------------------------------------|C
........your knees are weak        .................and then you fall

|-----------------------------------------------------------------------------------------------------|C
|-----------------------------------------------------------------------------------------------------|G
|-----------------------------------------------------------------------------------------------------|D#
|-----------------------------------4---4-------------------------------------------------------------|A#
|-2---22---2---2-2---2--2-----------2-x-2-7---77---7---7-10--10-10--10--------------------------------|F
|-0-x-00-x-0-x-0-0-x-0x-0-x---------------5-x-55-x-5-x-5-8-x-8x-8-x-8---------------------------------|C
its so hard to admit it all..................

|-----------------------------------------------------------------------------------------------------|C
|-----------------------------------------------------------------------------------------------------|G
|-----------------------------------------------------------------------------------------------------|D#
|-----------------------------------4---5---5-5---5---5-5---5---4---4---------------------------------|A#
|-2---22---2---2-2---2--2-----------2-x-3-x-3-3-x-3-x-3-3-x-3-x-2-x-2---------------------------------|F
|-0-x-00-x-0-x-0-0-x-0x-0-x---------------------------------------------------------------------------|C
its all your fault                   and you know that now

|-----------------------------------------------------------------------------------------------------|C
|-----------------------------------------------------------------------------------------------------|G
|-----------------------------------------------------------------------------------------------------|D#
|-----------------------------------4---4-------------------------------------------------------------|A#
|-2---22---2---2-2---2--2-----------2-x-2-7---77---7---7-10--10-10--10--------------------------------|F
|-0-x-00-x-0-x-0-0-x-0x-0-x---------------5-x-55-x-5-x-5-8-x-8x-8-x-8---------------------------------|C
and you feel sorry for it aaaaaaaaaaaaaallll




intro riff2 (again)

|-----------------------------------------------------------------------------------------------------|C
|-----------------------------------------------------------------------------------------------------|G
|-----------------------------------------------------------------------------------------------------|D#
|-----------------------------------------------------------------------------------------------------|A#
|-2-(2)(2)(2)3-(2)(2)(2)6-(2)(2)(2)--------------2-(2)(2)(2)3-(2)(2)(2)6-(2)(2)(2)--------------------|F
|-0-(0)(0)(0)1-(0)(0)(0)4-(0)(0)(0)3-1-0-4-1-0---0-(0)(0)(0)1-(0)(0)(0)4-(0)(0)(0)*3------------------|C

you loose yourself always doomed to be alone...



Outro riffing alway the same end with the figure on the right
|-----------------------------------------------------------------------------------------------------|C
|-----------------------------------------------------------------------------------------------------|G
|-----------------------------------------------------------------------------------------------------|D#
|-(2)(2)-(2)--(2)--(2)--(2)(2)-(2)--------------------------------------------------------------------|A#
|-(2)(2)-(2)--(2)--(2)--(2)(2)-(2)----------------------------------3--6------------------------------|F
|-(0)(0)-(0)--(0)--(0)--(0)(0)-(0)----------------------------------1--4------------------------------|C


Enviada por Sem inscrição
Nº de acordes: 5