• Violão
  • Guitarra
  • Teclado
  • Cavaquinho
  • Contra-baixo
  • Bateria
  • Gaita
  • Guitar Pro
Tabbed by: MGBZH

Tuning: Standard

Intro

e|---------------------------------------------------------------------------|
B|---------------------------------------------------------------------------|
G|---7--7-5-8-5--2---5-5-5-5-5-5---------------------------------------------|
D|---------------------------------------------------------------------------|
A|---------------------------------------------------------------------------|
E|---------------------------------------------------------------------------|




e|---------------------------------------------------------------------------|
B|---------------------------------------------------------------------------|
G|---7--7-5-8-5--2---5-5-5-5-5-5---------------------------------------------|
D|---------------------------------------------------------------------------|
A|---------------------------------------------------------------------------|
E|---------------------------------------------------------------------------|
 pm--------------------------------------------------------------------------

    Hey  now,         letters burning by my bed for you
    Hey  now,         I can feel my instincts here for you, 
    Hey  now          By my bed for you, 
    Hey  now,         hey now




e|----10-8-------------------------------------------------------------------|
B|--8------------------------------------------------------------------------|
G|---------------------------------------------------------------------------|
D|---------------------------------------------------------------------------|
A|---------------------------------------------------------------------------|
E|---------------------------------------------------------------------------|
 pm--------------------------------------------------------------------------

  Uhu, you know it is frightening
  Uhu, uhu, you know it's like lightning



e|---------------------------------------------------------------------------|
B|---------------------------------------------------------------------------|
G|---7--7-5-8-5--2---5-5-5-5-5-5---------------------------------------------|
D|---------------------------------------------------------------------------|
A|---------------------------------------------------------------------------|
E|---------------------------------------------------------------------------|
 pm--------------------------------------------------------------------------

    Hey  now,       now,




e|---------------------------------------------------------------------------|
B|---------------------------------------------------------------------------|
G|---7--7-5-8-5--2---5-5-5-5-5-5---------------------------------------------|
D|---------------------------------------------------------------------------|
A|---------------------------------------------------------------------------|
E|---------------------------------------------------------------------------|
 pm--------------------------------------------------------------------------

    Hey  now,        letters burning by my bed for you
    Hey  now,        leave it to the wayside like you do, 
    for  you         Imagination calling mirrors for you
    Hey  now,        hey now




e|----10-8-------------------------------------------------------------------|
B|--8------------------------------------------------------------------------|
G|---------------------------------------------------------------------------|
D|---------------------------------------------------------------------------|
A|---------------------------------------------------------------------------|
E|---------------------------------------------------------------------------|

  Uh, you know it is frightening
  Uhu, uhu, you know it’s like lightning




e|---------------------------------------------------------------------------|
B|---------------------------------------------------------------------------|
G|---7--7-5-8-5--2---5-5-5-5-5-5---------------------------------------------|
D|---------------------------------------------------------------------------|
A|---------------------------------------------------------------------------|
E|---------------------------------------------------------------------------|
     Hey  now,       now,

e|---------------------------------------------------------------------------|
B|---------------------------------------------------------------------------|
G|---7--7-5-8-5--2---17------------------------------------------------------|
D|---------------------------------------------------------------------------|
A|---------------------------------------------------------------------------|
E|---------------------------------------------------------------------------|
    Hey  now,       now,
  
e|---------------------------------------------------------------------------|
B|---------------------------------------------------------------------------|
G|---19--19-17-20-17--12---17-17-17-17---------------------------------------|
D|---------------------------------------------------------------------------|
A|---------------------------------------------------------------------------|
E|---------------------------------------------------------------------------|
     Hey    now,           now,



Uhu, uhu, uhu, uhu


Enviada por Sem inscrição
Nº de acordes: 0