Kings of Leon

Sex On Fire

Kings of Leon

428 exibições
Intro: 

Gtr.1
e|---------------------------------------------------------------------------|
B|---------------------------------------------------------------------------|
G|---------------------------------------------------------------------------|
D|-------11p9-9-9--9---11p9-9-9--9---11p9-9-9--9---11p9-9-9--9---------------|
A|---------------------------------------------------------------------------|
E|-----0-----0---0---0-----0---0---0-----0---0---0-----0---0-----------------|

Then the bass, drums and second guitar come in

Gtr.1
e|---------------------------------------------------------------------------|
B|---------------------------------------------------------------------------|
G|---------------------------------------------------------------------------|
D|-------7p6--6-6--6---7p6--6-6--6---7p6--6-6--6---7p6--9-9--9---------------|
A|-----4-----4---4---4-----4---4---4-----4---4---4-----4----4----------------|
E|---------------------------------------------------------------------------|
Gtr.2
e|---------------------------------------------------------------------------|
B|---------------------------------------------------------------------------|
G|----6---6---6---6---6---6---6---6---6---6---6---6---6---6---6---6----------|
D|----6---6---6---6---6---6---6---6---6---6---6---6---6---6---6---6----------|
A|----4---4---4---4---4---4---4---4---4---4---4---4---4---4---4---4----------|
E|---------------------------------------------------------------------------|

Gtr.1
e|---------------------------------------------------------------------------|
B|---------------------------------------------------------------------------|
G|---------------------------------------------------------------------------|
D|-------11p9-9-9--9---11p9-9-9--9---11p9-9-9--9---11p9-9-9--9---------------|
A|---------------------------------------------------------------------------|
E|-----0-----0---0---0-----0---0---0-----0---0---0-----0---0-----------------|
Gtr.2
e|---------------------------------------------------------------------------|
B|---------------------------------------------------------------------------|
G|----9---9---9---9---9---9---9---9---9---9---9---9---9---9---9---9----------|
D|----9---9---9---9---9---9---9---9---9---9---9---9---9---9---9---9----------|
A|----7---7---7---7---7---7---7---7---7---7---7---7---7---7---7---7----------|
E|---------------------------------------------------------------------------|

Gtr.1
e|---------------------------------------------------------------------------|
B|---------------------------------------------------------------------------|
G|---------------------------------------------------------------------------|
D|-------7p6--6-6--6---7p6--6-6--6---7p6--6-6--6---7p6--9-9--9---------------|
A|-----4-----4---4---4-----4---4---4-----4---4---4-----4----4----------------|
E|---------------------------------------------------------------------------|
Gtr.2
e|---------------------------------------------------------------------------|
B|---------------------------------------------------------------------------|
G|----6---6---6---6---6---6---6---6---6---6---6---6---6---6---6---6----------|
D|----6---6---6---6---6---6---6---6---6---6---6---6---6---6---6---6----------|
A|----4---4---4---4---4---4---4---4---4---4---4---4---4---4---4---4----------|
E|---------------------------------------------------------------------------|

Verse 1
Gtr.2 stops and singing starts. Gtr.1 continues playing same as intro.

Gtr.1
e|---------------------------------------------------------------------------|
B|---------------------------------------------------------------------------|
G|---------------------------------------------------------------------------|
D|-------11p9-9-9--9---11p9-9-9--9---11p9-9-9--9---11p9-9-9--9---------------|
A|---------------------------------------------------------------------------|
E|-----0-----0---0---0-----0---0---0-----0---0---0-----0---0-----------------|
       There where you're laying,         Don't make a sound,

Then Gtr.3 kicks in

Gtr.1
e|---------------------------------------------------------------------------|
B|---------------------------------------------------------------------------|
G|---------------------------------------------------------------------------|
D|-------7p6--6-6--6---7p6--6-6--6---7p6--6-6--6---7p6--9-9--9---------------|
A|-----4-----4---4---4-----4---4---4-----4---4---4-----4----4----------------|
E|---------------------------------------------------------------------------|
Gtr.3
e|---------------------------------------------------------------------------|
B|---------6--------------6-------------6-------------6----------------------|
G|------8-------------8-------------8-------------8--------------------------|
D|---------------------------------------------------------------------------|
A|---------------------------------------------------------------------------|
E|---------------------------------------------------------------------------|
      I know they're watching,           They're watching,

Gtr.2 comes back in here

Gtr.1
e|---------------------------------------------------------------------------|
B|---------------------------------------------------------------------------|
G|---------------------------------------------------------------------------|
D|-------11p9-9-9--9---11p9-9-9--9---11p9-9-9--9---11p9-9-9--9---------------|
A|---------------------------------------------------------------------------|
E|-----0-----0---0---0-----0---0---0-----0---0---0-----0---0-----------------|
Gtr.2
e|---------------------------------------------------------------------------|
B|---------------------------------------------------------------------------|
G|----9---9---9---9---9---9---9---9---9---9---9---9---9---9---9---9----------|
D|----9---9---9---9---9---9---9---9---9---9---9---9---9---9---9---9----------|
A|----7---7---7---7---7---7---7---7---7---7---7---7---7---7---7---7----------|
E|---------------------------------------------------------------------------|
Gtr.3
e|---------------------------------------------------------------------------|
B|---------6--------------6-------------6-------------6----------------------|
G|------8-------------8-------------8-------------8--------------------------|
D|---------------------------------------------------------------------------|
A|---------------------------------------------------------------------------|
E|---------------------------------------------------------------------------|
       All the commotion,                  The killing of pain,

Gtr.1
e|---------------------------------------------------------------------------|
B|---------------------------------------------------------------------------|
G|---------------------------------------------------------------------------|
D|-------7p6--6-6--6---7p6--6-6--6---7p6--6-6--6---7p6--9-9--9---------------|
A|-----4-----4---4---4-----4---4---4-----4---4---4-----4----4----------------|
E|---------------------------------------------------------------------------|
Gtr.2
e|---------------------------------------------------------------------------|
B|---------------------------------------------------------------------------|
G|----6---6---6---6---6---6---6---6---6---6---6---6---6---6---6---6----------|
D|----6---6---6---6---6---6---6---6---6---6---6---6---6---6---6---6----------|
A|----4---4---4---4---4---4---4---4---4---4---4---4---4---4---4---4----------|
E|---------------------------------------------------------------------------|
Gtr.3
e|---------------------------------------------------------------------------|
B|---------6--------------6-------------6-------------6----------------------|
G|------8-------------8-------------8-------------8--------------------------|
D|---------------------------------------------------------------------------|
A|---------------------------------------------------------------------------|
E|---------------------------------------------------------------------------|
       They were just talking,                   Just talking,

Chorus 1

Gtr.1
e|---4-4-4-4-4-4-4-4-7-7-7-7-7-7-7-7-11-11-11-11-11-11-11-11-9-9-9-9-9-9-9-9-|
B|--5-5-5-5-5-5-5-5-9-9-9-9-9-9-9-9-12-12-12-12-12-12-12-12-9-9-9-9-9-9-9-9--|
G|---------------------------------------------------------------------------|
D|---------------------------------------------------------------------------|
A|---------------------------------------------------------------------------|
E|---------------------------------------------------------------------------|
Gtr.2
e|---------------------------------------------------------------------------|
B|---------------------------------------------------------------------------|
G|----9---9---9---9---9---9---9---9---9---9---9---9---9---9---9---9----------|
D|----9---9---9---9---9---9---9---9---9---9---9---9---9---9---9---9----------|
A|----7---7---7---7---7---7---7---7---7---7---7---7---7---7---7---7----------|
E|---------------------------------------------------------------------------|
         Yo-ou-ou-ou-ou,                                Your sex is on fire,

Gtr.1
e|----12-----12--------12--------------12-----12-----------------------------|
B|----14b16--14b16-----14--------------14b16--14b16-----12-------------------|
G|------------------------------------------------------13-------------------|
D|---------------------------------------------------------------------------|
A|---------------------------------------------------------------------------|
E|---------------------------------------------------------------------------|
Gtr.2
e|---------------------------------------------------------------------------|
B|---------------------------------------------------------------------------|
G|----6---6---6---6---6---6---6---6---6---6---6---6---6---6---6---6----------|
D|----6---6---6---6---6---6---6---6---6---6---6---6---6---6---6---6----------|
A|----4---4---4---4---4---4---4---4---4---4---4---4---4---4---4---4----------|
E|---------------------------------------------------------------------------|

Verse 2

Gtr.1
e|---------------------------------------------------------------------------|
B|---------------------------------------------------------------------------|
G|---------------------------------------------------------------------------|
D|-------11p9-9-9--9---11p9-9-9--9---11p9-9-9--9---11p9-9-9--9---------------|
A|---------------------------------------------------------------------------|
E|-----0-----0---0---0-----0---0---0-----0---0---0-----0---0-----------------|
        The dark of the alley,               The break of the day,

Gtr.1
e|---------------------------------------------------------------------------|
B|---------------------------------------------------------------------------|
G|---------------------------------------------------------------------------|
D|-------7p6--6-6--6---7p6--6-6--6---7p6--6-6--6---7p6--9-9--9---------------|
A|-----4-----4---4---4-----4---4---4-----4---4---4-----4----4----------------|
E|---------------------------------------------------------------------------|
Gtr.2
e|---------------------------------------------------------------------------|
B|---------------------------------------------------------------------------|
G|----6---6---6---6---6---6---6---6---6---6---6---6---6---6---6---6----------|
D|----6---6---6---6---6---6---6---6---6---6---6---6---6---6---6---6----------|
A|----4---4---4---4---4---4---4---4---4---4---4---4---4---4---4---4----------|
E|---------------------------------------------------------------------------|
Gtr.3
e|---------------------------------------------------------------------------|
B|---------6--------------6-------------6-------------6----------------------|
G|------8-------------8-------------8-------------8--------------------------|
D|---------------------------------------------------------------------------|
A|---------------------------------------------------------------------------|
E|---------------------------------------------------------------------------|
     Ahead while I'm driving,                      I'm driving,

Gtr.1
e|---------------------------------------------------------------------------|
B|---------------------------------------------------------------------------|
G|---------------------------------------------------------------------------|
D|-------11p9-9-9--9---11p9-9-9--9---11p9-9-9--9---11p9-9-9--9---------------|
A|---------------------------------------------------------------------------|
E|-----0-----0---0---0-----0---0---0-----0---0---0-----0---0-----------------|
Gtr.2
e|---------------------------------------------------------------------------|
B|---------------------------------------------------------------------------|
G|----9---9---9---9---9---9---9---9---9---9---9---9---9---9---9---9----------|
D|----9---9---9---9---9---9---9---9---9---9---9---9---9---9---9---9----------|
A|----7---7---7---7---7---7---7---7---7---7---7---7---7---7---7---7----------|
E|---------------------------------------------------------------------------|
Gtr.3
e|---------------------------------------------------------------------------|
B|---------6--------------6-------------6-------------6----------------------|
G|------8-------------8-------------8-------------8--------------------------|
D|---------------------------------------------------------------------------|
A|---------------------------------------------------------------------------|
E|---------------------------------------------------------------------------|
        Soft lips are open,                 Them knuckles are pale,

Gtr.1
e|---------------------------------------------------------------------------|
B|---------------------------------------------------------------------------|
G|---------------------------------------------------------------------------|
D|-------7p6--6-6--6---7p6--6-6--6---7p6--6-6--6---7p6--9-9--9---------------|
A|-----4-----4---4---4-----4---4---4-----4---4---4-----4----4----------------|
E|---------------------------------------------------------------------------|
Gtr.2
e|---------------------------------------------------------------------------|
B|---------------------------------------------------------------------------|
G|----6---6---6---6---6---6---6---6---6---6---6---6---6---6---6---6----------|
D|----6---6---6---6---6---6---6---6---6---6---6---6---6---6---6---6----------|
A|----4---4---4---4---4---4---4---4---4---4---4---4---4---4---4---4----------|
E|---------------------------------------------------------------------------|
Gtr.3
e|---------------------------------------------------------------------------|
B|---------6--------------6-------------6-------------6----------------------|
G|------8-------------8-------------8-------------8--------------------------|
D|---------------------------------------------------------------------------|
A|---------------------------------------------------------------------------|
E|---------------------------------------------------------------------------|
       Feels like you're dying,                  You're dying,

Chorus 2

Gtr.1
e|---4-4-4-4-4-4-4-4-7-7-7-7-7-7-7-7-11-11-11-11-11-11-11-11-9-9-9-9-9-9-9-9-|
B|--5-5-5-5-5-5-5-5-9-9-9-9-9-9-9-9-12-12-12-12-12-12-12-12-9-9-9-9-9-9-9-9--|
G|---------------------------------------------------------------------------|
D|---------------------------------------------------------------------------|
A|---------------------------------------------------------------------------|
E|---------------------------------------------------------------------------|
Gtr.2
e|---------------------------------------------------------------------------|
B|---------------------------------------------------------------------------|
G|----9---9---9---9---9---9---9---9---9---9---9---9---9---9---9---9----------|
D|----9---9---9---9---9---9---9---9---9---9---9---9---9---9---9---9----------|
A|----7---7---7---7---7---7---7---7---7---7---7---7---7---7---7---7----------|
E|---------------------------------------------------------------------------|
         Yo-ou-ou-ou-ou,                                Your sex is on fire,

Gtr.1
e|----12-----12--------12--------------12-----12-----------------------------|
B|----14b16--14b16-----14--------------14b16--14b16-----12-------------------|
G|------------------------------------------------------13-------------------|
D|---------------------------------------------------------------------------|
A|---------------------------------------------------------------------------|
E|---------------------------------------------------------------------------|
Gtr.2
e|---------------------------------------------------------------------------|
B|---------------------------------------------------------------------------|
G|----6---6---6---6---6---6---6---6---6---6---6---6---6---6---6---6----------|
D|----6---6---6---6---6---6---6---6---6---6---6---6---6---6---6---6----------|
A|----4---4---4---4---4---4---4---4---4---4---4---4---4---4---4---4----------|
E|---------------------------------------------------------------------------|

Gtr.1
e|---4-4-4-4-4-4-4-4-7-7-7-7-7-7-7-7-11-11-11-11-11-11-11-11-9-9-9-9-9-9-9-9-|
B|--5-5-5-5-5-5-5-5-9-9-9-9-9-9-9-9-12-12-12-12-12-12-12-12-9-9-9-9-9-9-9-9--|
G|---------------------------------------------------------------------------|
D|---------------------------------------------------------------------------|
A|---------------------------------------------------------------------------|
E|---------------------------------------------------------------------------|
Gtr.2
e|---------------------------------------------------------------------------|
B|---------------------------------------------------------------------------|
G|----9---9---9---9---9---9---9---9---9---9---9---9---9---9---9---9----------|
D|----9---9---9---9---9---9---9---9---9---9---9---9---9---9---9---9----------|
A|----7---7---7---7---7---7---7---7---7---7---7---7---7---7---7---7----------|
E|---------------------------------------------------------------------------|
         So-o-o-o-o,                        Were the words to transpire,

Gtr.1
e|----12-----12--------12--------------12-----12-----------------------------|
B|----14b16--14b16-----14--------------14b16--14b16-----12-------------------|
G|------------------------------------------------------13-------------------|
D|---------------------------------------------------------------------------|
A|---------------------------------------------------------------------------|
E|---------------------------------------------------------------------------|
Gtr.2
e|---------------------------------------------------------------------------|
B|---------------------------------------------------------------------------|
G|----6---6---6---6---6---6---6---6---6---6---6---6---6---6---6---6----------|
D|----6---6---6---6---6---6---6---6---6---6---6---6---6---6---6---6----------|
A|----4---4---4---4---4---4---4---4---4---4---4---4---4---4---4---4----------|
E|---------------------------------------------------------------------------|

Verse 3

Gtr.1
e|---------------------------------------------------------------------------|
B|---------------------------------------------------------------------------|
G|---------------------------------------------------------------------------|
D|-------11p9-9-9--9---11p9-9-9--9---11p9-9-9--9---11p9-9-9--9---------------|
A|---------------------------------------------------------------------------|
E|-----0-----0---0---0-----0---0---0-----0---0---0-----0---0-----------------|
Gtr.2
e|---------------------------------------------------------------------------|
B|---------------------------------------------------------------------------|
G|----9-9-------------9-9-------------9-9-------------9-9-----9-9------------|
D|----9-9-------------9-9-------------9-9-------------9-9-----9-9------------|
A|----7-7-------------7-7-------------7-7-------------7-7-----7-7------------|
E|---------------------------------------------------------------------------|
        Hot as a fever,                        Rattling bones,


Gtr.1
e|---------------------------------------------------------------------------|
B|---------------------------------------------------------------------------|
G|---------------------------------------------------------------------------|
D|-------7p6--6-6--6---7p6--6-6--6---7p6--6-6--6---7p6--9-9--9---------------|
A|-----4-----4---4---4-----4---4---4-----4---4---4-----4----4----------------|
E|---------------------------------------------------------------------------|
Gtr.2
e|---------------------------------------------------------------------------|
B|---------------------------------------------------------------------------|
G|----6-6-------------6-6-------------6-6-------------6-6-----6-6------------|
D|----6-6-------------6-6-------------6-6-------------6-6-----6-6------------|
A|----4-4-------------4-4-------------4-4-------------4-4-----4-4------------|
E|---------------------------------------------------------------------------|
Gtr.3
e|---------------------------------------------------------------------------|
B|---------6--------------6-------------6-------------6----------------------|
G|------8-------------8-------------8-------------8--------------------------|
D|---------------------------------------------------------------------------|
A|---------------------------------------------------------------------------|
E|---------------------------------------------------------------------------|
        I could just taste it,                   Taste it,

Gtr.1
e|---------------------------------------------------------------------------|
B|---------------------------------------------------------------------------|
G|---------------------------------------------------------------------------|
D|-------11p9-9-9--9---11p9-9-9--9---11p9-9-9--9---11p9-9-9--9---------------|
A|---------------------------------------------------------------------------|
E|-----0-----0---0---0-----0---0---0-----0---0---0-----0---0-----------------|
Gtr.2
e|---------------------------------------------------------------------------|
B|---------------------------------------------------------------------------|
G|----9---9---9---9---9---9---9---9---9---9---9---9---9---9---9---9----------|
D|----9---9---9---9---9---9---9---9---9---9---9---9---9---9---9---9----------|
A|----7---7---7---7---7---7---7---7---7---7---7---7---7---7---7---7----------|
E|---------------------------------------------------------------------------|
Gtr.3
e|---------------------------------------------------------------------------|
B|---------6--------------6-------------6-------------6----------------------|
G|------8-------------8-------------8-------------8--------------------------|
D|---------------------------------------------------------------------------|
A|---------------------------------------------------------------------------|
E|---------------------------------------------------------------------------|
        But it's not forever,               But it's just tonight,

Gtr.1
e|---------------------------------------------------------------------------|
B|---------------------------------------------------------------------------|
G|---------------------------------------------------------------------------|
D|-------7p6--6-6--6---7p6--6-6--6---7p6--6-6--6---7p6--9-9--9---------------|
A|-----4-----4---4---4-----4---4---4-----4---4---4-----4----4----------------|
E|---------------------------------------------------------------------------|
Gtr.2
e|---------------------------------------------------------------------------|
B|---------------------------------------------------------------------------|
G|----6---6---6---6---6---6---6---6---6---6---6---6---6---6---6---6----------|
D|----6---6---6---6---6---6---6---6---6---6---6---6---6---6---6---6----------|
A|----4---4---4---4---4---4---4---4---4---4---4---4---4---4---4---4----------|
E|---------------------------------------------------------------------------|
Gtr.3
e|---------------------------------------------------------------------------|
B|---------6--------------6-------------6-------------6----------------------|
G|------8-------------8-------------8-------------8--------------------------|
D|---------------------------------------------------------------------------|
A|---------------------------------------------------------------------------|
E|---------------------------------------------------------------------------|
        We're still the greatest,          The greatest,  The greatest,

Chorus 3

Gtr.1
e|---4-4-4-4-4-4-4-4-7-7-7-7-7-7-7-7-11-11-11-11-11-11-11-11-9-9-9-9-9-9-9-9-|
B|--5-5-5-5-5-5-5-5-9-9-9-9-9-9-9-9-12-12-12-12-12-12-12-12-9-9-9-9-9-9-9-9--|
G|---------------------------------------------------------------------------|
D|---------------------------------------------------------------------------|
A|---------------------------------------------------------------------------|
E|---------------------------------------------------------------------------|
Gtr.2
e|---------------------------------------------------------------------------|
B|---------------------------------------------------------------------------|
G|----9---9---9---9---9---9---9---9---9---9---9---9---9---9---9---9----------|
D|----9---9---9---9---9---9---9---9---9---9---9---9---9---9---9---9----------|
A|----7---7---7---7---7---7---7---7---7---7---7---7---7---7---7---7----------|
E|---------------------------------------------------------------------------|
         Yo-ou-ou-ou-ou,                                Your sex is on fire,

Gtr.1
e|----12-----12--------12--------------12-----12-----------------------------|
B|----14b16--14b16-----14--------------14b16--14b16-----12-------------------|
G|------------------------------------------------------13-------------------|
D|---------------------------------------------------------------------------|
A|---------------------------------------------------------------------------|
E|---------------------------------------------------------------------------|
Gtr.2
e|---------------------------------------------------------------------------|
B|---------------------------------------------------------------------------|
G|----6---6---6---6---6---6---6---6---6---6---6---6---6---6---6---6----------|
D|----6---6---6---6---6---6---6---6---6---6---6---6---6---6---6---6----------|
A|----4---4---4---4---4---4---4---4---4---4---4---4---4---4---4---4----------|
E|---------------------------------------------------------------------------|

The bass and drums die down here and gtr.1 stops for a bar

Gtr.2
e|---------------------------------------------------------------------------|
B|---------------------------------------------------------------------------|
G|----9-9-------------9-9-------------9-9-------------9-9--------------------|
D|----9-9-------------9-9-------------9-9-------------9-9-----9-9------------|
A|----7-7-------------7-7-------------7-7-------------7-7-----9-9------------|
E|------------------------------------------------------------7-7------------|
         Yo-ou-ou-ou-ou,                                Your sex is on fire,

Gtr.1
e|----12-----12--------12--------------12-----12-----------------------------|
B|----14b16--14b16-----14--------------14b16--14b16-----12-------------------|
G|------------------------------------------------------13-------------------|
D|---------------------------------------------------------------------------|
A|---------------------------------------------------------------------------|
E|---------------------------------------------------------------------------|
Gtr.2
e|---------------------------------------------------------------------------|
B|---------------------------------------------------------------------------|
G|----6-6-------------6-6-------------6-6-------------6-6-----4-4------------|
D|----6-6-------------6-6-------------6-6-------------6-6-----4-4------------|
A|----4-4-------------4-4-------------4-4-------------4-4-----2-2------------|
E|---------------------------------------------------------------------------|

Gtr.1
e|---4-4-4-4-4-4-4-4-7-7-7-7-7-7-7-7-11-11-11-11-11-11-11-11-9-9-9-9-9-9-9-9-|
B|--5-5-5-5-5-5-5-5-9-9-9-9-9-9-9-9-12-12-12-12-12-12-12-12-9-9-9-9-9-9-9-9--|
G|---------------------------------------------------------------------------|
D|---------------------------------------------------------------------------|
A|---------------------------------------------------------------------------|
E|---------------------------------------------------------------------------|
Gtr.2
e|---------------------------------------------------------------------------|
B|---------------------------------------------------------------------------|
G|----9-9-------------9-9-------------9-9-------------9-9--------------------|
D|----9-9-------------9-9-------------9-9-------------9-9-----9-9------------|
A|----7-7-------------7-7-------------7-7-------------7-7-----9-9------------|
E|------------------------------------------------------------7-7------------|
         So-o-o-o-o                        Were the words to transpire,

Gtr.1
e|----12-----12--------12--------------12-----12-----------------------------|
B|----14b16--14b16-----14--------------14b16--14b16-----12-------------------|
G|------------------------------------------------------13-------------------|
D|---------------------------------------------------------------------------|
A|---------------------------------------------------------------------------|
E|---------------------------------------------------------------------------|
Gtr.2
e|---------------------------------------------------------------------------|
B|---------------------------------------------------------------------------|
G|----6-6-------------6-6-------------6-6-------------6-6-----4-4------------|
D|----6-6-------------6-6-------------6-6-------------6-6-----4-4------------|
A|----4-4-------------4-4-------------4-4-------------4-4-----2-2------------|
E|---------------------------------------------------------------------------|

The rythm section kicks back in here

Gtr.1
e|---4-4-4-4-4-4-4-4-7-7-7-7-7-7-7-7-11-11-11-11-11-11-11-11-9-9-9-9-9-9-9-9-|
B|--5-5-5-5-5-5-5-5-9-9-9-9-9-9-9-9-12-12-12-12-12-12-12-12-9-9-9-9-9-9-9-9--|
G|---------------------------------------------------------------------------|
D|---------------------------------------------------------------------------|
A|---------------------------------------------------------------------------|
E|---------------------------------------------------------------------------|
Gtr.2
e|---------------------------------------------------------------------------|
B|---------------------------------------------------------------------------|
G|----9---9---9---9---9---9---9---9---9---9---9---9---9---9---9---9----------|
D|----9---9---9---9---9---9---9---9---9---9---9---9---9---9---9---9----------|
A|----7---7---7---7---7---7---7---7---7---7---7---7---7---7---7---7----------|
E|---------------------------------------------------------------------------|
         Yo-ou-ou-ou-ou,                                Your sex is on fire,

Gtr.1
e|----12-----12--------12--------------12-----12-----------------------------|
B|----14b16--14b16-----14--------------14b16--14b16-----12-------------------|
G|------------------------------------------------------13-------------------|
D|---------------------------------------------------------------------------|
A|---------------------------------------------------------------------------|
E|---------------------------------------------------------------------------|
Gtr.2
e|---------------------------------------------------------------------------|
B|---------------------------------------------------------------------------|
G|----6---6---6---6---6---6---6---6---6---6---6---6---6---6---6---6----------|
D|----6---6---6---6---6---6---6---6---6---6---6---6---6---6---6---6----------|
A|----4---4---4---4---4---4---4---4---4---4---4---4---4---4---4---4----------|
E|---------------------------------------------------------------------------|

Gtr.1
e|---4-4-4-4-4-4-4-4-7-7-7-7-7-7-7-7-11-11-11-11-11-11-11-11-9-9-9-9-9-9-9-9-|
B|--5-5-5-5-5-5-5-5-9-9-9-9-9-9-9-9-12-12-12-12-12-12-12-12-9-9-9-9-9-9-9-9--|
G|---------------------------------------------------------------------------|
D|---------------------------------------------------------------------------|
A|---------------------------------------------------------------------------|
E|---------------------------------------------------------------------------|
Gtr.2
e|---------------------------------------------------------------------------|
B|---------------------------------------------------------------------------|
G|----9---9---9---9---9---9---9---9---9---9---9---9---9---9---9---9----------|
D|----9---9---9---9---9---9---9---9---9---9---9---9---9---9---9---9----------|
A|----7---7---7---7---7---7---7---7---7---7---7---7---7---7---7---7----------|
E|---------------------------------------------------------------------------|
         So-o-o-o-o,                        Were the words to transpire,

Gtr.1
e|----12-----12--------12--------------12-----12-----------------------------|
B|----14b16--14b16-----14--------------14b16--14b16-----12-------------------|
G|------------------------------------------------------13-------------------|
D|---------------------------------------------------------------------------|
A|---------------------------------------------------------------------------|
E|---------------------------------------------------------------------------|
Gtr.2
e|---------------------------------------------------------------------------|
B|---------------------------------------------------------------------------|
G|----6---6---6---6---6---6---6---6---6---6---6---6---6---6---6---6----------|
D|----6---6---6---6---6---6---6---6---6---6---6---6---6---6---6---6----------|
A|----4---4---4---4---4---4---4---4---4---4---4---4---4---4---4---4----------|
E|---------------------------------------------------------------------------|

And end on E

| b  bend sring
| r  release string
| /  slide up
| \  slide down
| h  hammer-on
| p  pull-off
| ~  vibrato
| +  harmonic
| x  Mute note
===============================================================================


Enviada por Sem inscrição
Nº de acordes: 0