John Mayer

I Don't Need No Doctor

John Mayer

1.721 exibições
  • Violão
  • Guitarra
  • Teclado
  • Cavaquinho
  • Contra-baixo
  • Bateria
  • Gaita
  • Guitar Pro
Intro/verse:

e|-----------0----------------------------------------|
b|--------------3p0---------3p0------2p0--------------|
g|-----0h1------------0-----4p0------2p0---0h1p0h1----|
d|----------------------------------------------------|
a|----------------------------------------------------|
e|--0---------------------3-------3-------------------|

e|----------0-----------------------------0-----------|
b|-------------3p0----------3----------------0--------|
g|-----0h1------------0-----4-------11b---------------|
d|----------------------------------12b---------------|
a|----------------------------------------------------|
e|--0--------------------3----------------------------|

e|----------------------------------------------------|
b|--5-----5-----3-----5-----7-------------------------|
g|--4-----5-----3-----4-----6-------------------------|
d|--5-----4-----2-----5-----7-------------------------|
a|--x-----5-----3-----x-----x-------------------------|
e|--5-----x-----x-----5-----7-------------------------|


"ive been too long away from my baby yeah"...

e|----------------------------------------------------|
b|--7-----5-----3-----5-------------------------------|
g|--6-----4-----2-----4-------------------------------|
d|--7-----5-----3-----5-------------------------------|
a|--x-----x-----x-----x-------------------------------|
e|--7-----5-----3-----5-------------------------------|

im guessing you would use the E minor pentatonic scale for the solo. i.e.

e|--------------------------------------------12--15----|
b|------------------------------------12--15------------|
g|----------------------------12--14--------------------|
d|--------------------12--14----------------------------|
a|------------12--14------------------------------------|
e|----12--15--------------------------------------------|


and


e-----------------------0-3---|
B-------------------0-3-------|
G--------------0-2------------|
D----------0-2----------------|
A------0-2--------------------|
E--0-3------------------------|


Enviada por Sem inscrição
Nº de acordes: 0