• Violão
  • Guitarra
  • Teclado
  • Cavaquinho
  • Contra-baixo
  • Bateria
  • Gaita
  • Guitar Pro
Drop D - D, A, D, G, B, d

 Intro
||-------1-----------------------1-----3p1-----------------3--------------------|
||-----1---3p1-----------------1---3p1-----3p1-----------3---5p3----------------|
||---1---------3p1-3p1-3p1---1-----------------3p1-----3---------5p3-5p3-5p3----|
||-3-----------------------3------------------------/5-----------------------5--|
||------------------------------------------------------------------------------|
||------------------------------------------------------------------------------|

-----3-----5p3----------0--------------------|
---3---5p3-----5p3------0--------------------|
-3-----------------5p3--0--------------------|
------------------------2--------------------|
------------------------2--------------------|
------------------------2--------------------|
                             ~     ~    ~

|--------------------------------------------17-17-17----15----------------|
|-14h15-15-14-x-14-14h15-15-14-x-14-14h15-15-15-15-15-14-14-14-17-14-14----|
|-14----14-14-x-14-14----14-14-x-14-14----14-14-14-14-14-14-14-14-14-14-14-|
|-14h16-16-14-x-14-14h16-16-14-x-14-14h16-16-------------------------14-14-|
|--------------------------------------------------------------------------|
|--------------------------------------------------------------------------| x3

----------------------------------------------------|
-14h15-15-14-x-14-14h15-15-14-x-14-15--15-15--15-15-|
-14----14-14-x-14-14----14-14-x-14-0---0--0---0--0--|
-14h16-16-14-x-14-14h16-16-14-x-14-0---0--0---0--0--|
----------------------------------------------------|
----------------------------------------------------|


 Verse
|------------------------------------------------------------------------------|
|------------------------------------------------------------------------------|
|-------0-----------0-----------0-----------0-----------0-----------0----------|
|-----2---2-------2---2-------3---3-------2---2-------1---1-------1---1--------|
|---2-------2---2-------2---3-------3---2-------2---1-------1---1-------1---3--|
|-2-----------2-----------3-----------2-----------1-----------1-----------3----|

---------------------------------------------------------------------|
---------------------------------------------------------------------|
---0-----------0-----------0-----------0-----------0-----------0-----|
-3---3-------2---2-------1---1-------1---1-------2---2-------2---2---|
-------3---2-------2---1-------1---1-------1---2-------2---2-------2-|
---------2-----------1-----------1-----------2-----------2-----------|


 Pre-Chorus
|-----------------------------------------------------------------------------|
|-0-0-0-0-0-4-4-4-4-4-5-5-5-5-5-5/7-7-7-7-7-7-7-7-7-7-7-7-7-7-7-7-7-7-7-7-7-7-|
|-0-0-0-0-0-2-2-2-2-2-4-4-4-4-4-4/6-6-6-6-6-7-7-7-7-7-7-7-7-7-7-6-6-6-6-6-6-6-|
|-2-2-2-2-2-4-4-4-4-4-5-5-5-5-5-5/7-7-7-7-7-9-9-9-9-9-9-9-9-9-9-9-9-9-9-9-9-9-|
|-2-------------------------------------------------------------0---------0---|
|-2---------4---------5---------5/7---------9---------9-----------------------|

-----------------0---------------------0-------------------------------------|
-7-7-0-0-0-0-0-0-0-0-0---------0-0-0-0-0-0-0-0-0-0-0-0-0-0-4-4-4-4-4-5-5-5-5-|
-6-6-0-0-0-0-0-0-0-0-0---------0-0-0-0-0-0-0-0-0-0-0-0-0-0-2-2-2-2-2-4-4-4-4-|
-9-9-0-2-2-2-2-2-2-2-2-0-2-----2-2-2-2-2-2-2-2-2-2-2-2-2-2-4-4-4-4-4-5-5-5-5-|
-------2-2-2-2-2-2-2-2---------2-2-2-2-2-2-2-2-2-2---------------------------|
-------2---------2---------0h2---------2---------2---------4---------5-------|

----------------------------------------------------------------------------|
-5-5/7-7-7-7-7-10-10-10-10-10-10-10-10-10-7-7-7-7-7-8-7-7-7-7-0-0-0-0-0-0-0-|
-4-4/6-6-6-6-6-7--7--7--7--7--7--7--7--7--7-6-6-6-6-6-6-6-6-6-0-0-0-0-0-0-0-|
-5-5/7-7-7-7-7-9--9--9--9--9--9--9--9--9--9-9-9-9-9-9-9-9-9-9-0-2-2-2-2-2-2-|
------------------------------------------0-----------0---------2-2-2-2-2-2-|
-----7---------9--------------9---------------------------------2---------2-|

-----------------------------|
-0-0-0-0-0-0-0-0-0-0-0-0-0-0-|
-0-0-0-0-0-0-0-0-0-0-0-0-0-0-|
-0-0-0-0-2-2-2-2-2-2-2-2-2-2-|
---------2-2-2-2-2-2-2-2-2-2-|
---------2---------2---------|


 Chorus
|-----------0-------------------0-------------------0-------------------0-----|
|-----------0-------------------0-------------------0-------------------0-----|
|-0-0-0-0-0-0-0-0-0-0-0-0-0-0-0-0-0-0-0-0-0-0-0-0-0-0-0-0-0-0-0-0-0-0-0-0-0-0-|
|-3-3-3-3-3-3-3-3-3-3-2-2-2-2-2-2-2-2-2-2-1-1-1-1-1-1-1-1-1-1-1-1-1-1-1-1-1-1-|
|-3-3-3-3-3-3-3-3-3-3-2-2-2-2-2-2-2-2-2-2-1-1-1-1-1-1-1-1-1-1-1-1-1-1-1-1-1-1-|
|-3-3-3-3-3-3-3-3-3-3-2-2-2-2-2-2-2-2-2-2-1-1-1-1-1-1-1-1-1-1-1-1-1-1-1-1-1-1-|

---------------0-------------------0-------------------0-------------------0-|
---------------0-------------------0-------------------0-------------------0-|
-0-0-0-0-0-0-0-0-0-0-0-0-0-0-0-0-0-0-0-0-0-0-0-0-0-0-0-0-0-0-0-0-0-0-0-0-0-0-|
-1-1-3-3-3-3-3-3-3-3-3-3-2-2-2-2-2-2-2-2-2-2-1-1-1-1-1-1-1-1-1-1-1-1-1-1-1-1-|
-1-1-3-3-3-3-3-3-3-3-3-3-2-2-2-2-2-2-2-2-2-2-1-1-1-1-1-1-1-1-1-1-1-1-1-1-1-1-|
-1-1-3-3-3-3-3-3-3-3-3-3-2-2-2-2-2-2-2-2-2-2-1-1-1-1-1-1-1-1-1-1-1-1-1-1-1-1-|


-------------------0-------------------0---------|
-------------------0-------------------0---------|
-0-0-0-0-0-0-0-0-0-0-0-0-0-0-0-0-0-0-0-0-0-0-0-0-|
-1-1-1-1-2-2-2-2-2-2-2-2-2-2-2-2-2-2-2-2-2-2-2-2-|
-1-1-1-1-2-2-2-2-2-2-2-2-2-2-2-2-2-2-2-2-2-2-2-2-|
-1-1-1-1-2-2-2-2-2-2-2-2-2-2-2-2-2-2-2-2-2-2-2-2-|

first time through, back to start.  Second time, continue on.


 Bridge
|---------0---------------0---------------0---------------0---------------0---|
|---------0---------------0---------------0---------------0---------------0---|
|-0-0-0-0-0-0-0-0-0-0-0-0-0-0-0-0-0-0-0-0-0-0-0-0-0-0-0-0-0-0-0-0-0-0-0-0-0-0-|
|-1-1-1-1-1-1-1-1-3-3-3-3-3-3-3-3-5-5-5-5-5-5-5-5-5-5-5-5-5-5-5-5-4-4-4-4-4-4-|
|-1-1-1-1-1-1-1-1-3-3-3-3-3-3-3-3-5-5-5-5-5-5-5-5-5-5-5-5-5-5-5-5-4-4-4-4-4-4-|
|-1-1-1-1-1-------3-3-3-3-3-------5-5-5-5-5-------5-5-5-5-5-------4-4-4-4-4---|

-----------------------------------0-----------------------|
-----------------------------------0-----------------------|
-0-0-0-0-0-0-0-0-0-0-0-0-0-0-0-0-0-0-0-0-0-0-0-0-0-0-0-0-0-|
-4-4-3-3-3-3-3-2-2-2-2-2-2-2-2-2-2-2-2-2-2-2-2-2-5-5-7-7-9-|
-4-4-3-3-3-3-3-2-2-2-2-2-2-2-2-2-2-2-2-2-2-2-2-2-5-5-7-7-9-|
-----3-3-3-3-3-2-2-2-2-2-2-2-2-2-2-2-2-2-2-2-2-2-5-5-7-7-9-|


 Middle 8 (3:14)
|-0-----------------------------------------------0-0-0-0-0-0-0-0-0-0-0---0-0-|
|-0-0-0-0-0-4-4-4-4-4-5-5-5-5-5-5/7-7-7-7-7-7-----0-0-0-0-0-0-0-0-0-0-0---0-0-|
|-0-0-0-0-0-2-2-2-2-2-4-4-4-4-4-4/6-6-6-6-6-7-----7-7-7-7-7-7-7-6-6-6-6-7-6-6-|
|-2-2-2-2-2-4-4-4-4-4-5-5-5-5-5-5/7-7-7-7-7-7h9---9-9-9-9-9-9-9-7-7-7-7-7-7-7-|
|-2---------------------------------------------------------------------------|
|-2---------4---------5---------5/7---------9---9-----9---------6-6-6-6---7---|

-0-0---0--------------------------------------------------------------------|
-0-0-0-0-0-0-0-0-4-4-4-4-4-5-5-5-5-5-5/7-7-7-7-7-10-10-10-10-10-10-10-10-10-|
-6-6-0-0-0-0-0-0-2-2-2-2-2-4-4-4-4-4-4/6-6-6-6-6-7--7--7--7--7--7--7--7--7--|
-7-7-0-2-2-2-2-2-4-4-4-4-4-5-5-5-5-5-5/7-7-7-7-7-9--9--9--9--9--9--9--9--9--|
-------2--------------------------------------------------------------------|
-------2---------4---------5---------5/7---------9--------------9-----------|


----0-0-0-0---0-0-0-0---0-----------------------------------------------0-0-|
-10-0-0-0-0---0-0-0-0-0-0-0-0-0-0-4-4-4-4-4-5-5-5-5-5-5/7-7-7-7-7-7-----0-0-|
-7--6-6-6-6-7-6-6-6-6-0-0-0-0-0-0-2-2-2-2-2-4-4-4-4-4-4/6-6-6-6-6-7-----7-7-|
-9--7-7-7-7-7-7-7-7-7-0-2-2-2-2-2-4-4-4-4-4-5-5-5-5-5-5/7-7-7-7-7-7h9---9-9-|
------------------------2---------------------------------------------------|
----7---------7---------2---------4---------5---------5/7-------------9-----|


-0-0-0-0-0-0-0-0-0---0-0-0-0-------------0-------------------0---------|
-0-0-0-0-0-0-0-0-0---0-0-0-0-0-0-0-0-0-0-0-0-0-0-0-0-0-0-0-0-0-0-0-0-0-|
-7-7-7-7-7-6-6-6-6-7-6-6-6-6-0-0-0-0-0-0-0-0-0-0-0-0-0-0-0-0-0-0-0-0-0-|
-9-9-9-9-9-7-7-7-7-7-7-7-7-7-0-2-2-2-2-2-2-2-2-2-2-2-2-2-2-2-2-2-2-2-2-|
-------------------------------2-2-2-2-2-2-2-2-2-2-2-2-2-2-2-2-2-2-2-2-|
-9-------------------7---------2---------2---------2---------2---------|

Play intro

 Verse
|---------0-----------------0-----------------0-----------------0-------------|
|-0-0-0-0-0-0-0-0-0-0-0-0-0-0-0-0-0-0-0-0-0-0-0-0-0-0-0-0-0-0-0-0-0-0-0-0-0-0-|
|-0-0-0-0-0-0-0-0-0-0-0-0-0-0-0-0-0-0-0-0-0-0-0-0-0-0-0-0-0-0-0-0-0-0-0-0-0-0-|
|-2-2-2-2-2-2-2-2-2-2-2-2-2-2-2-2-2-2-3-3-3-3-3-3-3-3-3-2-2-2-2-2-2-2-2-2-1-1-|
|-2-2-2-2-2-2-2-2-2-2-2-2-2-2-2-2-2-2-3-3-3-3-3-3-3-3-3-2-2-2-2-2-2-2-2-2-1-1-|
|---------2-----------------2-----------------3-----------------2-------------|

-----0-----------------0-----------------0-----------------0-----------------|
-0-0-0-0-0-0-0-0-0-0-0-0-0-0-0-0-0-0-0-0-0-0-0-0-0-0-0-0-0-0-0-0-0-0-0-0-0-0-|
-0-0-0-0-0-0-0-0-0-0-0-0-0-0-0-0-0-0-0-0-0-0-0-0-0-0-0-0-0-0-0-0-0-0-0-0-0-0-|
-1-1-1-1-1-1-1-1-1-1-1-1-1-1-1-1-3-3-3-3-3-3-3-3-3-2-2-2-2-2-2-2-2-2-1-1-1-1-|
-1-1-1-1-1-1-1-1-1-1-1-1-1-1-1-1-3-3-3-3-3-3-3-3-3-2-2-2-2-2-2-2-2-2-1-1-1-1-|
-----1-----------------1-----------------3-----------------2-----------------|

-0-----------------0---------|
-0-0-0-0-0-0-0-0-0-0-0-0-0-0-|
-0-0-0-0-0-0-0-0-0-0-0-0-0-0-|
-1-1-1-1-1-1-1-1-1-1-1-1-1-1-|
-1-1-1-1-1-1-1-1-1-1-1-1-1-1-|
-1-----------------1---------|

 Outro
|-0-0-0-0--0-0--0--0-0-0-0-0-0--0-0--0--0-0-0-0-0-0--0-0--0--0-0-0-0-0-0--0-0-|
|-0-0-0-0--0-0--0--0-0-0-0-0-0--0-0--0--0-0-0-0-0-0--0-0--0--0-0-0-0-0-0--0-0-|
|-0-0-0-0--0-0--0--0-0-0-0-0-0--0-0--0--0-0-0-0-0-0--0-0--0--0-0-0-0-0-0--0-0-|
|-3-3-3-3--3-3--3--3-3-2-2-2-2--2-2--2--2-2-1-1-1-1--1-1--1--1-1-1-1-1-1--1-1-|
|-3-3-3-3--3-3--3--3-3-2-2-2-2--2-2--2--2-2-1-1-1-1--1-1--1--1-1-1-1-1-1--1-1-|
|-3-3-3-3--3-3--3--3-3-2-2-2-2--2-2--2--2-2-1-1-1-1--1-1--1--1-1-1-1-1-1--1-1-|

-0--0-0-|-0-0-0-0--0-0--0--0-0-0-0-0-0--0-0--0--0-0-0-----||
-0--0-0-|-0-0-0-0--0-0--0--0-0-0-0-0-0--0-0--0--0-0-0-----||
-0--0-0-|-0-0-0-0--0-0--0--0-0-0-0-0-0--0-0--0--0-0-0-----||
-1--1-1-|-3-3-3-3--3-3--3--3-3-2-2-2-2--2-2--2--2-2-1-----||
-1--1-1-|-3-3-3-3--3-3--3--3-3-2-2-2-2--2-2--2--2-2-1-----||
-1--1-1-|-3-3-3-3--3-3--3--3-3-2-2-2-2--2-2--2--2-2-1-----||
     x6

any questions? andrewbiles@hotmail.com
______________________________
Lyrics (www.lyricsdir.com)

There's the moon asking to stay
Long enough for the clouds to fly me away
Well it's my time coming, i'm not afraid to die
My fading voice sings of love,
But she cries to the clicking of time
Of time

Wait in the fire...

And she weeps on my arm
Walking to the bright lights in sorrow
Oh drink a bit of wine we both might go tomorrow
Oh my love
And the rain is falling and i believe
My time has come
It reminds me of the pain
I might leave
Leave behind

Wait in the fire...

And I feel them drown my name
So easy to know and forget with this kiss
I'm not afraid to go but it goes so slow


Enviada por Sem inscrição
Nº de acordes: 4