Henry Mancini

The Pink Panther Theme

Henry Mancini

625 exibições
  • Violão
  • Guitarra
  • Teclado
  • Cavaquinho
  • Contra-baixo
  • Bateria
  • Gaita
  • Guitar Pro
INTRO(2x)
e|-----------------------------------------------------
B|-----------------------------------------------------
G|-----------------------------------------------------
D|---0-1-2----2--------2-1-0---------------------------
A|-4-------2-----2-----------4-----4-------------------
E|------------------------------4-----4----------------

CONTINUNAÇÃO
e|-----------------------------------------------------
B|-------------------------1-0------0------------------
G|------------0----------0-------0----3--2-0-----------
D|---0-1-2--4------1-2-4-------2-------------2-0-2-2---
A|-4---------------------------------------------------
E|-----------------------------------------------------

e|-----------------------------------0-----------------
B|-------------------------1-0---------4--------4/5---- --->essa última beeeem baixinho
G|------------0----------0-------0---------------------
D|---0-1-2--4------1-2-4-------2-----------------------
A|-4---------------------------------------------------
E|-----------------------------------------------------

e|------------0----------------------------------------
B|--------------3-0------------------------------------
G|------------------2-0---3p2-3p2-3p2-3p2-0------------
D|---0-1-2--------------2-------------------2-0-2-2----
A|-4---------------------------------------------------
E|-----------------------------------------------------

e|-----------------------------------------------------
B|-----------------------------------------------------
G|------0-------------------------0--------------------  ---> (2x)
D|-2-1-0--2-0-2-2--------------0-1--2-0-2-2------------
A|---------------------------4-------------------------
E|-----------------------------------------------------

e|-----------------------------------------------------
B|-------------------------1-0------0------------------
G|------------0----------0-------0----3--2-0-----------
D|---0-1-2--4------1-2-4-------2-------------2-0-2-2---
A|-4---------------------------------------------------
E|-----------------------------------------------------

e|-----------------------------------0-----------------
B|-------------------------1-0---------4---------------
G|------------0----------0-------0---------------------
D|---0-1-2--4------1-2-4-------2-----------------------
A|-4---------------------------------------------------
E|-----------------------------------------------------

e|------------0----------------------------------------
B|--------------3-0------------------------------------
G|------------------2-0---3p2-3p2-3p2-3p2-0------------
D|---0-1-2--------------2-------------------2-0-2-2----
A|-4---------------------------------------------------
E|-----------------------------------------------------

e|-----------------------------------------------------
B|-----------------------------------------------------
G|------0-------------------------0--------------------  ---> vai baixando até o final
D|-2-1-0--2-0-2-2--------------0-1--2-0-2-2------------
A|---------------------------4-------------------------
E|-----------------------------------------------------


Enviada por Sem inscrição
Nº de acordes: 0