• Violão
  • Guitarra
  • Teclado
  • Cavaquinho
  • Contra-baixo
  • Bateria
  • Gaita
  • Guitar Pro
Blues:

|----------------------------|
|----------------------------|
|----------------------------|
|----------------------------|
|-----2-2--4-4--5-5--4-4-----|(x2)
|----------------------------|

|----------------------------|
|----------------------------|
|----------------------------|
|----------------------------|
|-----2-2--4-4--5-5--4-4-----|(x2)
|-----0-0--0-0--0-0--0-0-----|

|----------------------------|
|----------------------------|
|----------------------------|
|-----2-2--4-4--5-5--4-4-----|
|-----0-0--0-0--0-0--0-0-----|(x2)
|----------------------------|

|----------------------------|
|----------------------------|
|----------------------------|
|----------------------------|
|-----2-2--4-4--5-5--4-4-----|(x2)
|-----0-0--0-0--0-0--0-0-----|

|-----------------|
|-----------------|
|-----------------|
|-----4-4-4-4-----|
|-----2-2-2-2-----|
|-----------------|

|--------------------------|
|--------------------------|
|--------------------------|
|-----2-2--4-4--5-5--4-----|
|-----0-0--0-0--0-0--0-----|
|--------------------------|

|--------------------------------|
|--------------------------------|
|--------------------------------|
|--------------------------------|
|-----2-2--4-4--5-5--4-4---2-----|
|-----0-0--0-0--0-0--0-0---2-----|


Enviada por Sem inscrição
Nº de acordes: 0