Guns N`Roses

Knockin' On Heaven's Door

Guns N`Roses

7.593 exibições
Afinação: (Eb, Bb, Gb, Db, Ab, Eb)

Tom: Ab (relativo a afinação), G (se for considerado a posição)
Intro: 

    G           D               C        
eb|-3---3-------------2-0------------------------0------------------|
Bb|-3-----3---3-----3----3---3-------------1-------1-----1----------|
Gb|-0-------0-----2--------2---0---------0---0-------0-----0---0----|
Db|-0-0---------0----------------0-----2-------2-------2-----2------|
Ab|-2------------------------------0h3------------------------------|
Eb|-3---------------------------------------------------------------|
    G           D               C    (a bateria entra aqui)V      
eb|-----3-------------2-0-----------|-----------------------------0-0-0-0|
Bb|-------3---3-----3-----3---3-----|--------1---------1-----1----1-1-1-1|
Gb|-0-------0-----2---------2---0---|------0---0-----------0---0--0-0-0-0|
Db|-0-0---------0---------------0h2-|----2--------2------2--------2-2-2-2|
Ab|-2-------------------------------|-3-------------3-------------3-3-3-3|
Eb|-3-------------------------------|-----------------------------x-x-x-x|

      G       D       C
eb|-------|-------|-------|
Bb|-------|-------|-------|
Gb|-------|---7---|---5---|
Db|---5---|---7---|---5---|
Ab|---5---|---5---|---3---|
Eb|---3---|-------|-------|

    O Riff acima é tocado duas vezes
    Os Riffs de Guitarra executados durante os versos
    variam durante a música entre os doi citado abaixo.
               
            Riff 1                                 Riff 2    
eb|-------------0-------------------|  eb|-----------------------------|
Bb|-----0h1-----------1-------------|  Bb|---1-------------1-----------|
Gb|---2-----2-------2---2-----0---0-|  Gb|-0---0---------0---0---------|
Db|-2---------2---2-------0h2---2---|  Db|-------2---2---------2---2---|
Ab|---------------------------------|  Ab|---------3---3---------3---0-|
Eb|---------------------------------|  Eb|-----------------------------|
  
Letra Cifrada
  
G          D               Am
Mamma take this badge from me  Riff 1
G          D         C
I can't use it anymore  Riff 2
G                D             Am
It's getting dark, too dark to see  Riff 1
G                D                       C 
Feels like I'm knockin' on heaven's door Riff 2   

Variação em oitavas no refrão (começa na 2ª frase do refrão)

---------------------------------------------------------------------------------------------|
---------------------------------------------------------------------------------------------|
-12----------11------9-9/7-9/7-7/5-7/5-5/4-4/12---12-12--11-------12--11--9--16--14--12------|
---------------------------------------------------------------------------------------------|
-10----------9-------7-7/5-7/5-5/3-5/3-3/2-2/10---10-10--9--------10--9---7--14--12--10------|
---------------------------------------------------------------------------------------------|

      G       D       C
eb|-------|-------|-------|
Bb|-------|-------|-------|
Gb|-------|---7---|---5---|
Db|---5---|---7---|---5---|
Ab|---5---|---5---|---3---|
Eb|---3---|-------|-------|

Esse Riff é repetido em todo o Refrão.

G5            D5                    C5 
Knock, knock, knockin' on heaven's door,Hey, hey, hey, hey, yeah    
G5            D5                    C5                       
Knock, knock, knockin' on heaven's door                              
G5                 D5                    C5                       
Ooh, knock, knock, knockin' on heaven's door, Ooh yeah             
G5            D5                    C5
Knock, knock, knockin' on heaven's door, Hey, hey, hey, hey, yeah     

Solo 1: ( G D e C )

eb|---------------------------------------------------------------------|
Bb|------------------15-----------------------------15b-15---13--12-----|
Gb|-12-14b-12-14------------14b-12-12----------12-----------------------|
Db|--------------------------------------12/14--------------------------|
Ab|---------------------------------------------------------------------|
Eb|---------------------------------------------------------------------|

eb|--------------------------------------15---------------15-17b-17----|
Bb|--13/15-----13p12--13--12-------12-13----13-12---15/17--------------|
Gb|--------------------------------------------------------------------|
Db|--------------------------14----------------------------------------|
Ab|--------------------------------------------------------------------|
Eb|--------------------------------------------------------------------|

eb|--17b--17b-15---20b--20p19--20--19--20b--20--19--20--20------------|
Bb|--------------------------------------------------------17~~~~-----|
Gb|-------------------------------------------------------------------|
Db|-------------------------------------------------------------------|
Ab|-------------------------------------------------------------------|
Eb|-------------------------------------------------------------------|

eb|------------------------15----|
Bb|--15b-15b---------------------|
Gb|---------14b-14b--12----------|
Db|------------------------------|
Ab|------------------------------|
Eb|------------------------------|

G       D                  Am
Mama, put my guns in the ground  Riff 1
G       D                C
I can't shoot them anymore  Riff 2
G              D                 Am
That cold black cloud is comin' down  Riff 1
G              D                       C
Feels like I'm knockin' on heaven's door  Riff 2

G5            D5                    C5
Knock, knock, knockin' on heaven's door,Hey, hey, hey, hey, yeah
G5            D5                    C5 
Knock, knock, knockin' on heaven's door
G5                 D5                    C5
Ooh, knock, knock, knockin' on heaven's door, Ooh yeahhh....

Solo 2:  ( G D e C )
 
eb|------------10--15-14b--14~~--14brb--12--14p12---------|
Bb|--13----13-------------------------------------15b-----|
Gb| ----12------------------------------------------------|
Db|-------------------------------------------------------|
Ab|-------------------------------------------------------| 
Eb|-------------------------------------------------------| 

eb|------15------15---------------------15-------------------15------|
Bb|--15b----15b-----15brb--13--15----------15-----------15~~----15---|
Gb|--------------------------------14b--------14brb--12-14~~---------|
Db|------------------------------------------------------------------|
Ab|------------------------------------------------------------------|
Eb|------------------------------------------------------------------|

Eb|--------------------------15----17b-17brb--15-17-15--20-19-20-20b-|
Bb|--15---15--------------15----15-----------------------------------|
Gb|--14b--14b--12~~---/16--------------------------------------------|
Db|------------------------------------------------------------------|
Ab|------------------------------------------------------------------|
Eb|------------------------------------------------------------------|

eb|--20-19-20-20b--20-19-20-22b-22b--22--------22---------------|
Bb| ------------------------------------20-22b----22brb--20--22-|
Gb|-------------------------------------------------------------| 
Db|-------------------------------------------------------------| 
Ab|-------------------------------------------------------------| 
Eb|-------------------------------------------------------------| 

eb|------------------------------------------------------------------|
Bb|-22brb--20-22--20-----19b-------20--19---19brb---17--19p17-17~~---|
Gb|------------------------------------------------------------------|
Db|------------------------------------------------------------------|
Ab|------------------------------------------------------------------|
Eb|------------------------------------------------------------------|

eb|-15----15---------------------------------------------------------|
Bb|----17----17p15----15---------------------------------------------|
Gb|----------------17----16brb--16rb--12--11---11brb--9~~--/7--5p4---|
Db|----------------------------------------------------------------5-|
Ab|------------------------------------------------------------------|
Eb|------------------------------------------------------------------|

G5            D5                    C5
Knock, knock, knockin' on heaven's door,Hey, hey, hey, hey, yeah
G5            D5                    C5 
Knock, knock, knockin' on heaven's door
G5                 D5                    C5
Ooh, knock, knock, knockin' on heaven's door, Ooh yeahhh....

Até o Final da Música


Enviada por tinho
Nº de acordes: 12