• Violão
  • Guitarra
  • Teclado
  • Cavaquinho
  • Contra-baixo
  • Bateria
  • Gaita
  • Guitar Pro
Intro: 
E|----------------------------------------------------------------------|
B|---------------------7----7--------------------------------------------|
G|---------------------7h(b9)-7h(b9)--9p7------------------------------------|
D|-------------5—7(b9)------------------9--5---5--------5--7p5----------|
A|---------5/7--------------------------------7----5h7-----------7-------|
E|------0----------------------------------------------------------------|

E|-----------------------------------------------------------------------|
B|-----------------------------------------------------------------------|
G|-----------------------------------------------------------------------|   (2x)
D|--------------7p5---5----5---------------------------------------------|
A|---------5h7------7----7----------5h7----7p5---5---5h7-----------------|
E|------0----------------------0--0------------7---7---------------------|

Verso 1:
E|-----------------------------------------------------------------------|
B|-----------------------------------------------------------------------|
G|-----------------------------------------------------------------------|   (2x)
D|--------------6h7p6-----7p6---6h7p6------------------------------------|
A|--------------7---------7---7-------7----------------------------------|
E|-----------0-----------------------------------------------------------|

E|-----------------------------------------------------------------------|
B|---------------7(b9)------7(b9)-------7(b9)------7(b9)---------------------|
G|---------------7(b9)------7(b9)-------7(b9)------7(b9)---------------------|
D|---------------7(b9)------7(b9)-------7(b9)------7(b9)---------------------|
A|-----------------------------------------------------------------------|
E|-----------------------------------------------------------------------|

E|-----------------------------------------------------------------------|
B|-----------------------------------------------------------------------|
G|-----------------------------------------------------------------------|   (2x)
D|--------------6h7p6-----7p6---6h7p6------------------------------------|
A|--------------7---------7---7-------7----------------------------------|
E|-----------0-----------------------------------------------------------|

E|-----------0----------5---------7--------------------------------------|
B|-----------0----------5---------7--------------------------------------|
G|-----------7----------5---------7--------------------------------------|
D|-----------5----------5---------7--------------------------------------|
A|-----------7----------7---------(b9)-------------------------------------|
E|-----------0----------5---------7--------------------------------------|

E|-----------------------------------------------------------------------|
B|-----------------------------------------------------------------------|
G|-----------------------------------------------------------------------|   (2x)
D|--------------7p5---5----5---------------------------------------------|
A|---------5h7------7----7----------5h7----7p5---5---5-------------------|
E|------0----------------------0--0------------7---7---------------------|

(“No man is an island to stand alone”)
E|-----------5-----------0-----------------------------------------------|
B|-----------5-----------3/5---3--0--------------------------------------|
G|-----------5----------------------2--0---------------------------------|
D|-----------5---------------------------2--0----------------------------|
A|-----------7--------------------------------2--0-----------------------|
E|-----------5-------------------------------------3b---0----------------|

E|-----------------------------------------------------------------------|
B|-----------------------------------------------------------------------|
G|-----------------------------------------------------------------------|   (2x)
D|--------------6h7p6-----7p6---6h7p6------------------------------------|
A|--------------7---------7---7-------7----------------------------------|
E|-----------0-----------------------------------------------------------|

E|-----------0----------5---------7--------------------------------------|
B|-----------0----------5---------7--------------------------------------|
G|-----------7----------5---------7--------------------------------------|
D|-----------5----------5---------7--------------------------------------|
A|-----------7----------7---------(b9)-------------------------------------|
E|-----------0----------5---------7--------------------------------------|

E|----------------------------------0------5-----7-----------------------|
B|----------------------------------0------5-----7-----------------------|
G|----------------------------------7------5-----7-----------------------|
D|--------------7p5---5----5--------5------5-----7-----------------------|
A|---------5h7------7----7----------7------7-----(b9)----------------------|
E|------0---------------------------0------5-----7-----------------------|

E|-----------------------------------------------------------------------|
B|-----------------------------------------------------------------------|
G|-----------------------------------------------------------------------|   (2x)
D|--------------7p5---5----5---------------------------------------------|
A|---------5h7------7----7----------5h7----7p5---5---5h7-----------------|
E|------0----------------------0--0------------7---7---------------------|

Final:
E|-----------0----------5---------7--------------------------------------|
B|-----------0----------5---------7--------------------------------------|
G|-----------7----------5---------7--------------------------------------|
D|-----------5----------5---------7--------------------------------------|
A|-----------7----------7---------(b9)-------------------------------------|
E|-----------0----------5---------7--------------------------------------|


Enviada por Sem inscrição
Nº de acordes: 0