Tom: A

Intro: 

2x

e|----5---7-5---5--------|
B|--5---5-----5----------|
G|-----------------------|
D|-----------------------|
A|-----------------------|
E|-----------------------|

First verse pattern:


e|----5---7-5---5-------4---7-4---5----------|
B|--5---5-----5--------5--5-----5------------|
G|-------------------------------------------|
D|-------------------------------------------|
A|-------------------------------------------|
E|-------------------------------------------|

e|----5---7-5---7--------5---7-5---5---------|
B|---------------------6---6-----6-----------|
G|--7---7-----7------------------------------|
D|-------------------------------------------|
A|-------------------------------------------|
E|-------------------------------------------|

(use the strum pattern here or palm mute the following chords)

A5              E5
A million miles away 
B5
Your signal in the distance 
   D5                   A5
To whom it may concern 
                  E5
I think I lost my way 
         B5
Getting good at starting over 
      D5                 A5
Every time that I return
                   E5
Learning to walk again 
     B5
I believe I've waited long enough
         D5       A5
 Where do I begin? 
                   E5
Learning to talk again 
           B5
 Can't you see I've waited long enough
         D5
 Where do I begin? 

(stop the patter or palm mute and play the chords)

A5                       E5
    Do you remember the days
    B5
 We built these paper mountains 
             D5                A5
And sat and watched them burn 
                     E5
I think I found my place
           B5
 Can't you feel it growing stronger 
        D5 E5 F5 G5  A5
Little conqueror

                 E5
Learning to walk again
   B5
 I believe I've waited long enough
         D5 E5 F5 G5  A5
 Where do I begin? 
                 E5
Learning to talk again 
   B5
I believe I've waited long enough 
         D5 E5 F5 G5  A5
Where do I begin?

A5
Now
                   E5
 For the very first time 
                 F#5
Don't you pay no mind
        D5
 Set me free again 
A5
You keep alive a moment at a time
But still inside a whisper to a liar
E5
 To sacrifice but knowing to survive 
The first to cry another state of mind
F#5
 I'm on my knees, I'm praying for a sign
D5
 Forever, whenever  I never wanna die 

A5
I never wanna die  I never wanna die
 I'm on my knees  I never wanna die 
E5
I'm dancing on my grave 
I'm running through the fire
 Forever, whenever  I never wanna die 
F#m
I never wanna leave  I never say goodbye
D5                                     A5
 Forever, whenever , Forever, whenever

                 E5
Learning to walk again
   B5
 I believe I've waited long enough
         D5 E5 F5 G5  A5
 Where do I begin? 
                 E5
Learning to talk again 
   B5
I believe I've waited long enough 
         D5 E5 F5 G5  A5
Where do I begin?

                 E5
Learning to walk again
   B5
 I believe I've waited long enough

D5 E5 F5 G5  A5
                 E5
Learning to talk again 
   B5
I believe I've waited long enough 

(D5 E5 F5 G5) 2x

A5 (12th fret)

2nd guitar durring break:

e|-------------------------------------------------------|
B|-------------------------------------------------------|
G|--6-6----7-7-7----9-9-9----11-13-14--------------------|
D|--x-x----x-x-x----x-x-x----x--x--x---------------------|
A|--4-4----5-5-5----7-7-7----9--11-12--------------------|
E|-------------------------------------------------------|


Enviada por Sem inscrição
Nº de acordes: 9