Foo Fighters

These Days

Foo Fighters

1.109 exibições
  • Violão
  • Guitarra
  • Teclado
  • Cavaquinho
  • Contra-baixo
  • Bateria
  • Gaita
  • Guitar Pro
Guitar 1 - Dave Grohl
Guitar 2 - Chris Shiflett
Guitar 3 - Pat Smear

Intro / Verso
(Guitar 1)
e|--------------------------------------------------|
B|--------------------------------------------------|
G|--------------------------------------------------|
D|-------11---------11----------0----------0--------|
A|--0----------0----------12---------12-------------|
E|----12----12---12----12----12---12----12---12-----|

(Guitar 2) (Depois vem em primeiro verso)
e|--------------------------------------------------|
B|--------------------------------------------------|
G|--2--2--2--2--2--2--2--2--------------------------|
D|--2--2--2--2--2--2--2--2--------------------------|
A|--0--0--0--0--0--0--0--0--------------------------|
E|--------------------------------------------------|



Pré-Refrão 1
(Guitar 1 & 2)
e|------------------------------------------------------------------------------|
B|------------------------------------------------------------------------------|
G|--------0-----------------------------0-----------------------------0---------|
D|----2------2---2-------0----------4------4---4-------0----------2------2---2--|
A|--3---3------3-----2------2---2-5---5------5-----4------4---4-3---3------3----|
E|-----------------3---3------3------------------5---5------5-------------------|

e|--------3-3-3-3-3-3-3-3-----|
B|--------3-3-3-3-3-3-3-3-----|
G|--------0-0-0-0-0-0-0-0-----|
D|--------0-0-0-0-0-0-0-0-----|
A|---2----2-2-2-2-2-2-2-2-----|
E|-3---3--3-3-3-3-3-3-3-3-----|



Refrão (2x)
(Guitar 1)
e|----------------0--0-0-0-0--0-0--0-0-0-0------3--3-3-3-3--3-3--3-3-3-3---|
B|----------------2--2-2-2-2--2-2--2-2-2-2-0----3--3-3-3-3--3-3--3-3-3-3---|
G|----------------2--2-2-2-2--2-2--2-2-2-2-0-0--0--0-0-0-0--0-0--0-0-0-0---|
D|----------------2--2-2-2-2--2-2--2-2-2-2-0-2--2--2-2-2-2--2-2--2-2-2-2-0-|
A|----------------0--0-0-0-0--0-0--0-0-0-0-0-2--2--2-2-2-2--2-2--2-2-2-2-0-|
E|-------------------------------------------0--0--0-0-0-0--0-0--0-0-0-0-0-|
"Easy for you to say!"

e|----3--3-3-3-3--3-3--3-3-3-3------2--2-2-0-2--2-2--2-2-2-2----| 
B|----3--3-3-3-3--3-3--3-3-3-3---3--3--3-3-3-3--3-3--3-3-3-3----| 
G|-0--0--0-0-0-0--0-0--0-0-0-0-0-2--2--2-2-2-2--2-2--2-2-2-2----| 
D|-2--2--2-2-2-2--2-2--2-2-2-2-0-0--0--0-0-0-0--0-0--0-0-0-0----|
A|-3--3--3-3-3-3--3-3--3-3-3-3-0--------------------------------|
E|--------------------------------------------------------------|




(Guitar 2)
e|-------------------------------------------------------------------------------|
B|-------------------------------------------------------------------------------|
G|---------------------------------------------12--12-12--12--12-12--12-12-12-12-|
D|---------------11--11-11-9-7--7-7--7-7-7-7---12--12-12--12--12-12--12-12-12-12-|
A|---------------------------------------------10--10-10--10--10-10--10-10-10-10-|
E|-------------------------------------------------------------------------------|
"Easy for you to say!"

e|------------------------------------------------------------------------------|
B|------------------------------------------------------------------------------|
G|-12--12--12-12--12--12-12--12-12-12-12--11--11--11-11--11--11-11--11-11-11-11-|
D|-10--10--10-10--10--10-10--10-10-10-10--x---x---x--x---x---x--x---x--x--x--x--|
A|-10--10--10-10--10--10-10--10-10-10-10--9---9---9--9---9---9--9---9--9--9--9--|
E|-8---8---8--8---8---8--8---8--8--8--8-----------------------------------------|



(Guitar 3)
e|-----------------------------------------------------------------------|
B|-----------------------------------------------------------------------|
G|-------------------------------------------9--9--9-9-9-9--9-9--9-9-9-9-|
D|---------------11--11-11-9-7--7-7--7-7-7-7-9--9--9-9-9-9--9-9--9-9-9-9-|
A|-------------------------------------------7--7--7-7-7-7--7-7--7-7-7-7-|
E|-----------------------------------------------------------------------|
"Easy for you to say!"

e|---0--0-0-0-0--0-0--0-0-0-0-0--0--0-0-0-0--0-0--0-0-0-0----------------|
B|---1--1-1-1-1--1-1--1-1-1-1-3--3--3-3-3-3--3-3--3-3-3-3----------------|
G|-0-0--0-0-0-0--0-0--0-0-0-0-0--0--0-0-0-0--0-0--0-0-0-0----------------|
D|-2-2--2-2-2-2--2-2--2-2-2-2-4--4--4-4-4-4--4-4--4-4-4-4----------------|
A|-3-3--3-3-3-3--3-3--3-3-3-3-5--5--5-5-5-5--5-5--5-5-5-5----------------|
E|-----------------------------------------------------------------------|



Depois do Refrão
(Guitar 1)
e|------5--5-5-5-5--5-5--5-5-5-5----5--5-5-5-5--5-5--5-5-5-5---|
B|------5--5-5-5-5--5-5--5-5-5-5----5--5-5-5-5--5-5--5-5-5-5---|
G|------6--6-6-6-6--6-6--6-6-6-6----6--6-6-6-6--6-6--6-6-6-6---|
D|---7--7--7-7-7-7--7-7--7-7-7-7-7--7--7-7-7-7--7-7--7-7-7-7---|
A|---7--7--7-7-7-7--7-7--7-7-7-7-7--7--7-7-7-7--7-7--7-7-7-7---|
E|---5--5--5-5-5-5--5-5--5-5-5-5-5--5--5-5-5-5--5-5--5-5-5-5---|
"..these days!"


(Guitar 2)
e|-----------------------------------------------------------------------------------|
B|-----------------------------------------------------------------------------------|
G|-----------------------------------------------------------------------------------|
D|---11--11--11-11-11-12--12-12--12-12-12-12-11--11--11-11-11-12--12-12--12-12-12-12-|
A|-----------------------------------------------------------------------------------|
E|-----------------------------------------------------------------------------------|
"..these days!"


(Guitar 3)
e|-------------------------------------------------------------------|
B|-------------------------------------------------------------------|
G|---2-2-2-2-2-2-2-2-7-7-7-7-7-7-7-7-2-2-2-2-2-2-2-2-7-7-7-7-7-7-7-7-|
D|---2-2-2-2-2-2-2-2-7-7-7-7-7-7-7-7-2-2-2-2-2-2-2-2-7-7-7-7-7-7-7-7-|
A|---0-0-0-0-0-0-0-0-5-5-5-5-5-5-5-5-0-0-0-0-0-0-0-0-5-5-5-5-5-5-5-5-|
E|-------------------------------------------------------------------|
"..these days"


(Verso) 8x

Pré-Refrão 2
(Guitar 1)
e|----3--3-3-3-3--3-3--3-3-3-3----2--2-2-2-0--0-0--0-0-0-0----3--3-3-3-3--3-3-|
B|----3--3-3-3-3--3-3--3-3-3-3-3--3--3-3-3-2--2-2--2-2-2-2----3--3-3-3-3--3-3-|
G|-0--0--0-0-0-0--0-0--0-0-0-0-2--2--2-2-2-2--2-2--2-2-2-2-0--0--0-0-0-0--0-0-|
D|-2--2--2-2-2-0--0-0--0-0-0-0-0--0--0-0-0-2--2-2--2-2-2-2-2--2--2-2-2-0--0-0-|
A|-3--3--3-3-3-2--2-2--2-2-2-2-------------0--0-0--0-0-0-0-3--3--3-3-3-2--2-2-|
E|-------------3--3-3--3-3-3-3-----------------------------------------3--3-3-|

e|-3-3-3-3-3-3-3-------|
B|-3-3-3-3-3-3-3-------|
G|-0-0-0-0-0-0-0-------|
D|-0-0-0-0-0-0-0-------|
A|-2-2-2-2-2-2-2-------|
E|-3-3-3-3-3-3-3-------|


(Guitar 2)
e|------------------------------------------------------------------------------|
B|------------------------------------------------------------------------------|
G|--------0-----------------------------0-----------------------------0---------|
D|----2------2---2-------0----------4------4---4-------0----------2------2---2--|
A|--3---3------3-----2------2---2-5---5------5-----4------4---4-3---3------3----|
E|-----------------3---3------3------------------5---5------5-------------------|

e|--------3-3-3-3-3-3-3-3-----|
B|--------3-3-3-3-3-3-3-3-----|
G|--------0-0-0-0-0-0-0-0-----|
D|--------0-0-0-0-0-0-0-0-----|
A|---2----2-2-2-2-2-2-2-2-----|
E|-3---3--3-3-3-3-3-3-3-3-----|


(Guitar 3)
e|-----------------------------------------0--0-0--0-0-0-0---------------------|
B|----1--1-1-1-1--1-1--1-1-1-1-3--3--3-3-3-2--2-2--2-2-2-0----1--1-1-1-1--1-1--|
G|-0--0--0-0-0-0--0-0--0-0-0-0-2--2--2-2-2-2--2-2--2-2-2-0-0--0--0-0-0-0--0-0--|
D|-2--2--2-2-2-0--0-0--0-0-0-0-0--0--0-0-0-2--2-2--2-2-2-0-2--2--2-2-2-0--0-0--|
A|-3--3--3-3-3-2--2-2--2-2-2-2-------------0--0-0--0-0-0-0-3--3--3-3-3-2--2-2--|
E|-------------3--3-3--3-3-3-3-----------------------------------------3--3-3--|

e|---------------------|
B|-1-1-1-1-1-1-1-------|
G|-0-0-0-0-0-0-0-------|
D|-0-0-0-0-0-0-0-------|
A|-2-2-2-2-2-2-2-------|
E|-3-3-3-3-3-3-3-------|

(Refrão) 2x

Depois refrão

(Pré-Rdefrão 2)

Intro (6x)

Pré-Refrão
(Guitar 1)
e|---------------3~---|
B|---------------3~---|
G|-------0-------0~---|
D|---2------2----0~---|
A|-3---3------3--2~---|
E|---------------3~---|


Refrão (2x)

Depois refrão (2x)
Segunda vez através Depois Refrão, Guitar 2 joga isso duas vezes:
e|---------------------------------|
B|--5------10------5------3--------|
G|--7b9----12b14---7b9----5b7------|
D|---------------------------------|
A|---------------------------------|
E|---------------------------------|


Enviada por Sem inscrição
Nº de acordes: 0