Foo Fighters

Skin And Bones

Foo Fighters

579 exibições
Tuning: eBGDAD

Intro
e|--------------------------------------|
B|-----10-----10-----------10-----------|
G|-----10-----10-----------10-----------| 
D|--------------------0--------------0--|
A|--------------------------------------|
E|--10-----10-----10-----10-----10------|


Verse
e|----------------------------------------------------------------------|
B|-----10------------10------------10-----------10-----------10---------|
G|-----10------------10------------10-----------10-----------10---------|
D|-------------0--------------0-----------0------------0-------------0--|
A|----------------10------10--------------------------------------------|
E|--10-----10-------------------9-----9-----10-----10----10-----10------|

then (play that twice)

e|------------------------------|
B|----10------10-----10-----10--|
G|----10------10-----10-----10--|
D|------------------------------|
A|------------------------------|
E|--9-----9-----10-----10-------|
 "Watch me spin, Watch me spin ..."

Chorus
e|------------------------------|
B|------------------10------10--|
G|-----3-----3------10------10--| (x3)
D|-----0-----0------0-------0---| 
A|------------------------------|
E|--3-----3-----10------10------|
 "Skin and Bones ..."

e|------------0--|
B|----5----5--5--|
G|----5----0-----|
D|---------------|
A|---------------|
E|--5----5--5----|
"Don't you know ..."


Bridge
e|--------------------------------------------------------------|
B|--------------------------------------------------------------|
G|-----10-----10------10-----10-------10-----10------10-----10--|
D|--0---------------------9--------0----------------------------|
A|---------8------10----------------------8------10-------------|
E|-------------------------------------------------------9------|
 "I'm just Skin and Bones..."


Enviada por tinho
Nº de acordes: 0