Foals

Spanish Sahara

Foals

597 exibições
Tabbed by: Andri


This is the chord progression which is repeated throughout the song, just
strum continuously for the chorus.

        F       Am        C        Am     G
e|-----------------------------------------------|
B|o---------------------------------------------o|
G|------2--------5--------9---------5-----4------|
D|------3--------7--------10--------7-----5------|
A|o-----3--------7--------10--------7-----5-----o|
E|-----------------------------------------------|

These are the volume swells at 2:19 (they go on for longer).

e|---17---17---15---15---15---15---17---17---17---17---15---15---15---15---|
B|-------------------------------------------------------------------------|
G|-------------------------------------------------------------------------|
D|-------------------------------------------------------------------------|
A|-------------------------------------------------------------------------|
E|-------------------------------------------------------------------------|

Solo at 4:28

Gtr 1

e|-------------------------------------------------|
B|---13--13--12--12--12-/-10--10--10---------------|
G|------------------------------------10--12--9----|  X2
D|-------------------------------------------------|
A|-------------------------------------------------|
E|-------------------------------------------------|


e|--------------------------------------------------|
B|---13--13--12--12--12-/-10--10--10-/-12--12--12---|
G|--------------------------------------------------|
D|--------------------------------------------------|
A|--------------------------------------------------|
E|--------------------------------------------------|


e|-------------------------------------------------|
B|---13--13--12--12--12-----13--13--12--12--12-----|
G|-------------------------------------------------|
D|-------------------------------------------------|
A|-------------------------------------------------|
E|-------------------------------------------------|


e|-------------------------------------------------|
B|---13--13--12--12--12-/-10--10--10---------------|
G|------------------------------------10--12--9----|  X2
D|-------------------------------------------------|
A|-------------------------------------------------|
E|-------------------------------------------------|


e|--------------------------------------------------|
B|---13--13--12--12--12-/-10--10--10-/-12--12--12---|
G|--------------------------------------------------|
D|--------------------------------------------------|
A|--------------------------------------------------|
E|--------------------------------------------------|


e|----------------------------------------------------|
B|---10--12--10--12--12--10--12--12--10--12--12--12---|
G|----------------------------------------------------|
D|----------------------------------------------------|
A|----------------------------------------------------|
E|----------------------------------------------------|


Gtr 2 (4:42)

e|------------------------------------17---15--------|
B|---17--17--15--15--15-------------------------17---|
G|-----------------------17--17--17------------------|
D|---------------------------------------------------|X2
A|---------------------------------------------------|
E|---------------------------------------------------|
                            
                       
e|------------------------------------------------|
B|---17--17--15--15--15--------------15--15--15---|
G|-----------------------17--17--17---------------|
D|------------------------------------------------|
A|------------------------------------------------|
E|------------------------------------------------|


e|----------------------------------------------------|
B|-------15------15--15------15--15------15--15--15---|
G|---17------17----------17----------17---------------|
D|----------------------------------------------------|
A|----------------------------------------------------|
E|----------------------------------------------------|
(this last line is really buried in the mix, but sounds fine)


Enviada por Sem inscrição
Nº de acordes: 4