Fernanda Brum

Espirito Santo

Fernanda Brum

4.605 exibições
  • Violão
  • Guitarra
  • Teclado
  • Cavaquinho
  • Contra-baixo
  • Bateria
  • Gaita
  • Guitar Pro
Tom: G

Intro: 

      G       G  Am7 G/B C                B7            D4/E
E|---------------------0-------------0--2-----------2-3--3-2--|
B|--0-----0-0--1---3---------------1----0--0-0----0-----------|
G|------0-------------------0-0--0------2-------2-------------|
D|----0-------------------------------------------------------|
A|-------------0---2---3----------------2---------------------|
E|--3-------3-----------------------------------------0-------|
           A                Am7       G/B       D         Am7       G/B
E|-------0--|--(12)HA|--|-----------------------------|---------------|
B|--3/5--5--|-----------|----0-1-0-1-3-------------3--|----0-1-0-1-3--|
G|-------6--|-----------|--2------------0h2-2----2----|--2------------|
D|----------|-----------|----------------------0------|---------------|
A|-------0--|-----------|------------2----------------|------------2--|
E|----------|-----------|-----------------------------|---------------|
      C                G           G
E|-----------------------3-2--0----------------|
B|-------------------------------2-----3-------|
G|--0--0--0—2/4\2-0--0---------------0----0----|
D|---------------------0-----------0--------0--|
A|--3--3---------------------------------------|
E|-------------------3-----------3-------------|

   G     G/B      C9  G/B
Espírito Santo, ore por mim
Am                    D7             G4 G C/D
Leve pra Deus tudo aquilo que eu preciso
          G     G/B       C9    G/B
Espírito Santo, use as palavras
Am                 D               G4 G Am7 G/B
Que eu necessito usar, mas não consigo

     C7+                   D/C
Me ajude nas minhas fraquezas
     Bm7/4             Em7/9
Não sei como devo pedir
          Am7    C/D                Dm7
Espírito Santo, vem interceder por mim

F/G G C7+               B
     Todas as coisa cooperam pra o bem
    D4/E     D       A/C#
Daqueles que amam a ti
          Am7    C/D          G9
Espírito Santo, vem orar por mim

(refrão 2x)
          Em7/9 D4/9     C9
Estou clamando, estou pedindo
 G/B            Am7       C/D    G9
Só Deus sabe a dor que estou sentindo
         Em7/9 D4/9    C9
Meu coração    está ferido
G/B           Am7   C/D  G
Mas o meu clamor está subindo

(introdução)

      G        G Am7 G/B C   G/B  Am7   D/F# G
E|-----------------------------------------3--|
B|--0-----0--0-1---3---5---3----1----------3--|
G|------0---------------------------0-2----0--|
D|----0------------------------------------0--|
A|-------------0---2---3---2----0----------2--|
E|--3--------3-----------------------------3--|

F/G G C7+               B
     Todas as coisa cooperam pra o bem
    D4/E     D       A/C#
Daqueles que amam a ti
          Am7    C/D          G5+
Espírito Santo, vem orar por mim

(refrão)


Enviada por kuika
Nº de acordes: 25