Sem imagem

Break Me Out

Edgewater

868 exibições
  • Violão
  • Guitarra
  • Teclado
  • Cavaquinho
  • Contra-baixo
  • Bateria
  • Gaita
  • Guitar Pro
Tuning – Drop C (DAFCGC)

Intro/verse

D----------------------------------------------------------------------------|
A----------------------------------------------------------------------------|
F-------------------------------------------------------------------------6--|
C---12---12p11----------------4---------12---12p11-----------------------4---|
G----------------------------------------------------------------------------|
C----------------------------------------------------------------------------|

D-----------------------------------------------------------------------------------|
A-----------------------------------------------------------------------------------|
F-------------------------------------------------------------------------6------6--|
C---12---12p11----------------4---------12---12p11-----------------------4----------|
G-----------------------------------------------------------------------------------|
C-----------------------------------------------------------------------------------|

 after you play it

    " Waste away in fear "
D-------------------------------------------------|
A-------------------------------------------------|
F------------------------------6-----9--9---11p9--|
C-------------------------------------------------|
G-------------------------------------------------|
C-------------------------------------------------|

Will you wait?

D----------------------------------------------------------------------------------|
A----------------------------------------------------------------------------------|
F-----------------------11--11p9-------------------------------11--11p9-----9p6h9--|
C-------------------------------------------12---12p11-----------------------------|
G----------------------------------------------------------------------------------|
C----------------------------------------------------------------------------------|

Do you still believe

D--------------------------------------------------------------------------------|
A--------------15---15p14-----------------17-----15--15p14------------14---------|
F---------------------------------14-----------------------------------------14--|
C--------------------------------------------------------------------------------|
G--------------------------------------------------------------------------------|
C--------------------------------------------------------------------------------|

I'll free myself?

D------------------------------------------------------------------------|
A------------------------------------------------------------------------|
F------------------------------------------------------------------------|
C----0--0--0---------------2-2-2-----------------------------------------|
G----0--0--0---(x4)------2-2-2--(x4)---------------------------------12--|
C----0--0--0---------------2-2-2-----------------------------------------|


Repeat intro

After repeat this part

D--------------------------------------------------------------------------------|
A--------------15---15p14-----------------17-----15--15p14------------14---------|
F---------------------------------14-----------------------------------------14--|

I'll free myself?

D-------------------------------------|
A-------------------------------------|
F-------------------------------------|
C----0--0--0---------------2-2-2------|
G----0--0--0---(x4)------2-2-2--(x4)--|
C----0--0--0---------------2-2-2------|

Did you wonder did you notice?

D----------------------|
A----------------------|
F----------------------|
C------2-2-2-2---------|
G------2-2-2-2---(X4)--|
C------2-2-2-2---------|

How I slept today

D----------------------|
A----------------------|
F----------------------|
C-----5-5-5-5----------|
G-----5-5-5-5----(X4)--|
C-----5-5-5-5----------|

Did you wonder?Won't you just

D----------------------|
A----------------------|
F----------------------|
C------2-2-2-2---------|
G------2-2-2-2---(X4)--|
C------2-2-2-2---------|

break me out?

D----------------------------------------------------------------------------------|
A----------------------------------------------------------------------------------|
F----------------------------------------------------7h9----7h9----7p9-------(x3)--|
C------5---7---2-------------------------------------------------------------------|
G------5--7---2--------(x3)--------------------------------------------------------|
C------5--7---2--------------------------------------------------------------------|
(I think it's right)

Breakdown

Won't you won't you wait?
Won't you won't you wait?

          First time                              Second time
D-----------------------------------------------|---------------------------|
A-----------------------------------------------|---------------------------|
F---7-6-----6--7-6----7h9-7p9-7p9-|---7-6-----6--7-6----(7h9-7p9-7p9-(x2))--|
C---------4------------4----------------------|----------4----------4-------|
G-----------------------------------------------|---------------------------|
C-----------------------------------------------|---------------------------|

Why can't you won't I am you don't
Break me, save me, liar, I am

1 Guitar
D--------------------------------------------------------------|
A--------------------------------------------------------------|
F--------------------------------------------------------------|
C----2--2--2-----------4--4--4----------5-5-5-----------7-7-7--|
G----2--2--2-(x2)----4--4--4-(x2)---5-5-5---(x3)--7-7-7--(x1)--|
C----2--2--2-----------4--4--4----------5-5-5-----------7-7-7--|

2 Guitar

D---------------------------------------|----------------------------------|
A---------------------------------------|----------------------------------|
F---9h11p9------------7h9p7--|----11(Vibrato)------------------9(Vibrato)--|
C---------------------------------------|----------------------------------|
G---------------------------------------|----------------------------------|
C---------------------------------------|----------------------------------|


I think It's right


Enviada por Sem inscrição
Nº de acordes: 0