Ed Sheeran

You Need Me I Dont Need You

Ed Sheeran

316 exibições
Tuning Drop D.
Capotraste 2nd fret. Everything is relative to the capo.

Part 1
E|-----5-----5-----5-----5--|
B|--------------------------|
G|--------------------------|
D|--x-----x-----x-----x-----|
A|--------------------------|
D|--------------------------|


Part 2
E|----------------------------------|
B|----------------------------------|
G|------------10--12p10--12p10------|
D|--10h12p10--------------------12--|
A|----------------------------------|
D|----------------------------------|


Chords
E|--------------------------------------------------|
B|--------------------------------------------------|
G|--------------------------------------------------|
D|--0--0--3--3--5--5--3--3--3--3--3--5--5--5--5-----|
A|--0--0--3--3--5--5--1--1--1--1--1--3--3--3--3-----|
D|--0--0--3--3--5--5--x--x--x--x--x--x--x--x--x--3b-|

Listen to the song to work out the strum pattern, theres a lot of muting to add in.


Enviada por Sem inscrição
Nº de acordes: 0