• Violão
  • Guitarra
  • Teclado
  • Cavaquinho
  • Contra-baixo
  • Bateria
  • Gaita
  • Guitar Pro
Intro/Verse
E|------------------------------|
B|------------------------------|
G|------------------------------|
D|------------------------------|
A|-00-00-00-00-0000000000000000-|
E|-00-00-00-00-0000000000000000-|
PM ............................

Verse 1
E|-------------------------|
B|-------------------------|
G|-------------------------|
D|-------------------5-3-0-|
A|-2-2-2-2-2-2-2-2-2-------|
E|-0-0-0-0-0-0-0-0-0-------|
   . . . .   .     .
This next part is tricky to tab out, it's the little riff right before the chorus, and a 
of people play it differently. I play this way and it sounds close enough. So you just 
decide for yourself.

E|----------------------------------------|
B|----------------------------------------|
G|---------------------------------7-5----|
D|--------------------------------------7-|
A|-----------------------5-5-7-7-7--------|
E|-0-0-3-3-5-5-0-5-5-7-7------------------|
PM................................

Chorus
E|-------------------------|
B|-------------------------|
G|-------------------------|
D|-----5~----------7--5--3-|
A|-2---3~----2-----5--3--1-|
E|-0---------0-------------|

Verse 2
E|-------------------------------------------------------------|
B|-------------------------------------------------------------|
G|-------------------------------------------------------------|
D|---------5--------------7/5--8-----------5-----------------5-|
A|-2-2-2-2-3-2-2-2-2-2-2--5/3--6---2-2-2-2-3-2-2-2-2-2-2-3-2-3-|
E|-0-0-0-0---0-0-0-0-0-0-----------0-0-0-0---0-0-0-0-0-0-1-0---|
PM . . . .   . . . . . .           . . . .   . . . . . .

After playing Verse Two 4 times do this:

A|2~
E|0~

Song Order:
Intro/Verse x 8
Verse 1 x 4
Pre-Chorus Riff x 1
Chorus x 4
Verse 1 x 4
Chorus x 4
Verse 2 x 4
Intro x 8


Enviada por Sem inscrição
Nº de acordes: 0