Disturbed

Inside The Fire

Disturbed

260 exibições
  • Violão
  • Guitarra
  • Teclado
  • Cavaquinho
  • Contra-baixo
  • Bateria
  • Gaita
  • Guitar Pro
Intro 

E-----------------------------------------| 
B-----------------------------------------| 
G-----------------------------------------| 
D-2---2-3-0-2-2--3-3--0-0-2-2-2-2-2-3-0-4-| 
A-2---2-3-0-2-2--3-3--2-2-2-2-3-2-3-2-0-6-| 
E-0---0-1-1-0-2--3-3--2-2-0-0-2-0-2-3-2-4-| 

Verse 1 

E---------------------------------------------------| 
B---------------------------------------------------| 
G---------------------------------------------------| 
D---------------------------------------------------| 
A-2-2-2-2---------2-2-2-2-----------1-1-1-1---------| 
E-2-------4-4-4-4---------2-2-2-2-2---------2-2-2-2-| 

Verse 2 

E---------------------| 
B---------------------| 
G---------------------| 
D-4-4-4-------5-5-5-0-| Repeat 2 times 
A-4-4-4-4-4-4-4-4-4-2-| 
E-------4-4-4-5-5-5-2-| 

Bridge 

E-----------------------------| 
B-----------------------------| 
G-2-2-2-----------------------| 
D-2-2-2-----------------------| 
A-------5-5-5-5-5-5-5-5-7-7-7-| 
E-------5-5-5-5-6-6-6-6-7-7-7-| 

Chorus 

E-----------------------------------| 
B-----------------------------------| 
G-----------------------------------| Repeat twice 
D-5-5-4-----5-5-4-----6-6-5---------| 
A-5-5-4-3-3-5-5-4-3-2-6-6-5-4-4-4-4-| 
E-------3-3-------3-2-------4-4-4-4-| 

Solo 

E-----------15----------------------10-------------13-14-15-16-| 
B-----13-14----------------------------------15-13-------------| 
G--12----------13-14-14-13-------------------------------------| 
D--------------------------12-13-12----13-12-------------------| 
A--------------------------------------------------------------| 
E--------------------------------------------------------------| 

Outro 

E-----------------------| 
B-----------------------| 
G-----------------------| 
D---2-2-3-3-2-2---------| 
A-2-2-2-2-3-2-2-1-1-1-0-| 
E-2-3-0-1-3-2-0-1-1-1-0-|


Enviada por Sem inscrição
Nº de acordes: 0