Dio

Don´t Talk To Stranger

Dio

258 exibições
Intro
E|------------------------|---------------------------|
B|-----1-----1----1-------|------1-----1----1---------|
G|---2-----2--------------|----3-----3----------------|
D|-0-----0-----0----------|--0-----0-----0------------|
A|------------------------|---------------------------|
E|------------------------|---------------------------|

E|------------------------|---------------------------|
B|-----1-----1----1-------|---------------------------|
G|---0-----0--------------|---------------------------|
D|-3-----2-----3----------|---------------------------|
A|------------------------|---------------------------|
E|------------------------|---------------------------|

At the end before the electric guitar starts

E|------------------------|---------------------------|
B|-----1-----1----1-------|------1-----1----1---------|
G|---2-----2--------------|----3-----3----------------|
D|-0-----0-----0----------|--0-----0-----0------------|
A|------------------------|---------------------------|
E|------------------------|---------------------------|

let ring out
E|------------------------|---------------------------|
B|-1----------------------|---------------------------|
G|-0----------------------|---------------------------|
D|-3----------------------|---------------------------|
A|------------------------|---------------------------|
E|------------------------|---------------------------|

Let this last chord ring
There is some overdub but i have omitted it because it was never played in concert that way.

heres part of the rest of the song.. hard intro with Dist
E|---------------------------|---------------------------|
B|---------------------------|---------------------------|
G|--7-xx-7-xx-7-xx-7-xx-7-7--|--7-xx-7-xx-7-xx-7-xx-7-7--|
D|--7-xx-8-xx-8-xx-8-xx-8-8--|--7-xx-8-xx-8-xx-8-xx-8-8--|
A|--5-55-5-55-5-55-5-55-5-5--|--5-55-5-55-5-55-5-55-5-5--|
E|---------------------------|---------------------------|

Palm mute and strike only the D note in between chords


Verse

    Hey   you   you know me   you touch me   Im  real
E|------------------------------------------------------|
B|------------------------------------------------------|
G|--7-xx-7--7-----7-xx-7--7-----7-xx-7--7-----7-xx-7--7-|
D|--7-xx-7--7-----6-xx-6--6-----5-xx-5--5-----3-xx-3--3-|
A|--5-55-5--5-----5-55-5--5-----5-55-5--5-----5-55-5--5-|
E|------------------------------------------------------|


Bridge

And Feel me               i'm Danger
                      i'm the Stranger       ( return to verse )
E|---------------------------|---------------------------|
B|---------------------------|---------------------------|
G|--3----------5-------------|--7-xx-7-xx-7-xx-7-xx-7-7--|
D|--3----------5-------------|--7-xx-8-xx-8-xx-8-xx-8-8--|
A|--1----------3-------------|--5-55-5-55-5-55-5-55-5-5--|
E|--1----------3-------------|---------------------------|



chorus

Don't talk                    Don't let them in side your
E|---------------------------|---------------------------|
B|---------------------------|---------------------------|
G|--5-7-------5-7-10-7-5-5---|---------------------------|
D|--5-7-------5-7-10-7-5-5---|---------------------------|
A|--3-5-------3-5-8--5-3-3---|---------------------------|
E|---------------------------|---------------------------|



  mind                        Runaway  runaway girl (solo)
E|---------------------------|---------------------------|
B|---------------------------|---------------------------|
G|-7----------5-7-10-7-5-5---|--3------2-----------------|
D|-7----------5-7-10-7-5-5---|--3------2-----------------|
A|-5----------3-5-8--5-3-3---|--1------0-----------------|
E|---------------------------|---------------------------|


Enviada por Sem inscrição
Nº de acordes: 0