Dick Dale

The Victor

Dick Dale

25 exibições
  • Violão
  • Guitarra
  • Teclado
  • Cavaquinho
  • Contra-baixo
  • Bateria
  • Gaita
  • Guitar Pro
Lembre|-se que Dick Dale toca notas mais rapido do que é possivel escrever
Cada nota equivale a mais ou menos 100x oque está digitado

intro
E|------------------------|
B|------------------------|
G|------------------------|
D|------------------------|   2x
A|-----7-7--7-7--------7--|
E|--7------------7--7-----|

riff 1
E|--------------------------------------------------|
B|--------------------------------------------------|
G|--------------------------------------------------|
D|-/9--9--9--9-9--7-9-10-7--9--9--9--9-9--7-9-10-7--|
A|--------------------------------------------------|
E|--------------------------------------------------|


E|---------------------------------|
B|---------------------------------|
G|---------------------------------|
D|-9-7-6-6--7-6-7-6-3--2--2-2--2-2-|     2x
A|---------------------------------|
E|---------------------------------|

riff 2
E|-----------------------------------------------------|
B|-----------------------------------------------------|
G|-9--9-9--9-9--7--9--7--9--7--4--4-4--4-4-4-4-7-4-7---|
D|-----------------------------------------------------|
A|-----------------------------------------------------|
E|-----------------------------------------------------|

E|--------------------------------------------|
B|--------------------------------------------|
G|-9--9-9--9-9--7--9--7--9--7--4--4-4--4-4-4--|
D|--------------------------------------------|
A|--------------------------------------------|
E|--------------------------------------------|


E|-----------------------------------------------------|
B|-----------------------------------------------------|
G|-4-4-4--4-4--5--5-5--5-5--7--5--7--5--9--9-9--9-9----|  2x
D|-----------------------------------------------------|
A|-----------------------------------------------------|
E|-----------------------------------------------------|

riff 3
E|---------------------|
B|---------------------|
G|---------------------|
D|------6--------6-----|   2x
A|-7--8---8-7--8---8-7-|
E|---------------------|


E|-------------------------------|            I
B|-------------------------------|            I
G|-12-9-7------------------------|            I
D|--------9-7-6-7-9-   2x--------|       I
A|-------------------------------|            I
E|-------------------------------|            I
                                I   2x
                                I
E|-------------------------------|       I
B|-------------------------------|       I
G|---------7-----7---------------|       I
D|-7-9-10-----10---10-9----------|       I
A|-------------------------------|       I
E|-------------------------------|       I

riff 3 denovo

E|-19--19--19--19-19--17-19-20-17--19--19--19--19-19--17-19-20-17---|
B|------------------------------------------------------------------|
G|------------------------------------------------------------------|
D|------------------------------------------------------------------|
A|------------------------------------------------------------------|
E|------------------------------------------------------------------|


E|-19-17-16-16--17-16-17-16-13--12--12-12--12-12-|
B|-----------------------------------------------|
G|-----------------------------------------------|        x2
D|-----------------------------------------------|
A|-----------------------------------------------|
E|-----------------------------------------------|

riff 2
riff 1 2x


Enviada por Sem inscrição
Nº de acordes: 0