Deicide

Lunatic Of God's Creation

Deicide

11 exibições
  • Violão
  • Guitarra
  • Teclado
  • Cavaquinho
  • Contra-baixo
  • Bateria
  • Gaita
  • Guitar Pro
Tabbed by chris poppert 
   Tune to E flat


   |---------------------------------|
   |---------------------------------|
   |---------------------------------|    intro(also 2nd chorus)
   |-------------2-1-3-2---2-1-------|   play 4 times . on the 2nd guitar 2
   |-2-1---3-2-----------3-----3-2-1-|   plays one octave higher.
   |-----3-----3---------------------|

   |---------------------------------------------|
   |---------------------------------------------|
   |---------------------------------------------|
   |--------------------------------------10-9\--|   riff A  x 4
   |--------------------------------------8--7\--|
   |1111114444333333666655555558888777777--------|



   |-------------------------|
   |-------------------------|
   |-------------------------|
   |-------------------------|    verse  x 10
   |-------------------------|
   |111144443333333366664433-|

   |-----------------------------------------------------------------|
   |-----------------------------------------------------------------|
   |-----------------------------------------------------------------|   riff B  x 2
   |-----------------------------------------------------------------|
   |--------33332222----------------------------------------33332222-|
   |00001111--------0000111144443333000011114444333300001111---------|



       1st chorus x4 (on the 4th sub the next measure)
   |----------------|-----------------|    |----------------|
   |----------------|-----------------|    |----------------|
   |----------------|-----------------|    |----------------|
   |-3-2---2-1------|-----------------|    |----------------|
   |-----3-----3-2-1|-3-2---2-1-------|    |-3-2-----3------|
   |----------------|-----3-----3-2-1-|    |-----3-2-1------|


   play riff A 6 times
   
   verse 10 times

   riff B 2 times 

   play the intro (now the chorus) 8 times...
   on the 8th time end with this riff
   |---------------------------------|
   |---------------------------------|
   |---------------------------------|    
   |-------------2-1-3-2---2-1-------|   
   |-2-1---3-2-----------3-----3-2-3-|   
   |-----3-----3-------------------1-|


Enviada por Sem inscrição
Nº de acordes: 0