Deicide

Hate Of All Hatreds

Deicide

0 exibições
  • Violão
  • Guitarra
  • Teclado
  • Cavaquinho
  • Contra-baixo
  • Bateria
  • Gaita
  • Guitar Pro
guitar one

e-----------------------------------------------------------------|
b-----------------------------------------------------------------|
g-----------------------------------------------------------------|
d-----------------------------------------------------------------|
a------------------------------------3--2--4--3--6--5--4--3--4--3-|
e-2p1111111111-2p111111111-2p1111111-1--0--2--1--4--3--2--1--2--1-|

guitar two

e------------------------------------------------------------------|
b------------------------------------------------------------------|
g------------------------------------------------------------------|
d------------------------------------------------------------------|
a-4------------4-----------4--------3--2--4--3--6--5--4--3--4--3---|
e-2------------2-----------2--------1--0--2--1--4--3--2--1--2--1---|
  .            .           .

both guitars

e---------------------------------------------------------------------------|
b---------------------------------------------------------------------------|
g---------------------------------------------------------------------------|
d---------------------------------------------------------------------------|
a---------------------------------------------------------------------------|
e-2p11111111111111-2p1111111111-2p11111111111-2p111111111111p00000-1p000000-|

e-------------------------------------------------------------------|
b-------------------------------------------------------------------|
g-------------------------------------------------------------------|
d-------------------------------------------------------------------|
a------------------------------------555566655577755588855544444444-|
e-1p00000000-1p000000000-1p00000000---------------------------------|

e----------------------------------------------------------------------|
b----------------------------------------------------------------------|
g----------------------------------------------------------------------|
d----------------------------------------------------------------------|
a-2222333222444222555222111-0-11112221113331114444-1111222111333111444-|
e----------------------------------------------------------------------|

 im sorry but thats all i got hopefully it helped


Enviada por Sem inscrição
Nº de acordes: 0