Deicide

Christ Denied

Deicide

2 exibições
  • Violão
  • Guitarra
  • Teclado
  • Cavaquinho
  • Contra-baixo
  • Bateria
  • Gaita
  • Guitar Pro
Fig. 1
e|-------------------------------------------------|
B|-------------------------------------------------|
G|-------------------------------------------------|
D|--------------------------------------------3----|
A|--------------------------------------------1----|
E|--0-0-302-0-0-0-203-0-0-301-0-0-0-203-0-0-3---0--|
    . . ... . . . ... . . ... . . . ... . . .   .

e|---------------------------------------------------------|
B|---------------------------------------------------------|
G|---------------------------------------------------------|
D|----------------------------------------------------3----|
A|----------------------------------------------------1----|
E|--0-0-302-0-0-0-203-0-0-301-0-0-0-203-0-0-301-0-0-3---0--|
    . . ... . . . ... . . ... . . . ... . . ... . . .   .

Fig. 2
e|----------------------------------|
B|----------------------------------|
G|----------------------------------|
D|----------------------------------|
A|--4-4-4-4-4-4-------3-3-3-3----1--|
E|--2-2-2-2-2-2--0-5--1-1-1-1--0----|
    . . . . . .  . .  . . . .  . .

Riff 1
e|-----------------------------------|----------------------------------|
B|-----------------------------------|----------------------------------|
G|-----------------------------------|----------------------------------|
D|-----------------------------------|----------------------------------|
A|------111---------111--------------|------111---------111-------------|
E|--000-----222-000-----000-222-333--|--000-----222-000-----1111111111--|

e|-----------------------------------|----------------------------------|
B|-----------------------------------|----------------------------------|
G|-----------------------------------|----------------------------------|
D|-----------------------------------|----------------------------------|
A|------111---------111--------------|------111---------333-------------|
E|--000-----222-000-----000-222-333--|--000-----222-000-----1111111111--|

Riff 2
e|------------------------------------|-----------------------------------|
B|------------------------------------|-----------------------------------|
G|------------------------------------|-----------------------------------|
D|------------------------------------|-----------------------------------|
A|--------3-2222222222-55-1111111111--|--------3--------------------------|
E|--0-1-3-----------------------------|--0-1-3---22222222-55-11111111111--|

End
e|-------------------------------------------------------|
B|-------------------------------------------------------|
G|-------------------------------------------------------|
D|----------------------------------------------------3--|
A|----------------------------------------------------1--|
E|--0-0-302-0-0-0-203-0-0-301-0-0-0-203-0-0-301-0-0-3----|
    . . ... . . . ... . . ... . . . ... . . ... . . .   


Order of play

Fig. 1 x2
Fig. 2 x4
Fig. 1 x2
Fig. 2 x4
Riff 1 x2
Riff 2 x4
Riff 1 x2
Fig. 1 x2
Fig. 2 x4
Fig. 1 x2
Fig. 2 x4
Riff 1 x2
Riff 2 x4
Riff 1 x2
End x1


Enviada por Sem inscrição
Nº de acordes: 0