Deicide

Believe The Lie

Deicide

1 exibições
  • Violão
  • Guitarra
  • Teclado
  • Cavaquinho
  • Contra-baixo
  • Bateria
  • Gaita
  • Guitar Pro
Tuning: Half step down
Notation Key
v: vibrato
t: tremolo bar
^: bend
.: palm mute
~: trill
p: pull-off
h: hammer-on
x: ghost note
/: slide up
\: slide down

Riff 1 x4
e|-------------------------|
B|-------------------------|
G|-------------------------|
D|-------------------------|
A|----3----------2---------|
E|--2---555222-0---333000--|

Riff 2 x1 (Time you died for your religion)
e|----------------------------------------------------------|
B|----------------------------------------------------------|
G|----------------------------------------------------------|
D|-----------------------------------------------------333--|
A|-----------222-11111111------------------------------111--|
E|--22222222--------------333-222-111111-000000000000-------|

Riff 2B x3 (Hypnotized by his infliction...)
e|---------------------------------------------------------|
B|---------------------------------------------------------|
G|---------------------------------------------------------|
D|----------------------------------------------------333--|
A|---4-------222-11111111-----------------------------111--|
E|---2--------------------333-222-111111-000000000000------|

Riff 2C x1
e|----------------------------------|
B|----------------------------------|
G|----------------------------------|
D|----------------------------------|
A|---4-------222-11111111-----------|
E|---2---------------------333-222--|

Riff 3 x8 (Believe the lie of a god you'll never know...)
e|----------------------------|
B|----------------------------|
G|----------------------------|
D|----------------------------|
A|--------2-111---------------|
E|--000-3-------3-2-1-000000--|

Repeat Riff 1 x4
Repeat Riff 2 x4

Riff 4 x4
e|---------------------------------------------------------------|
B|---------------------------------------------------------------|
G|---------------------------------------------------------------|
D|---------------------------------------------------------------|
A|--000-----333333---------222222---------222222---------222222--|
E|------000--------000-555--------000-444--------000-333---------|

Repeat Riff 3 x8
Repeat Riff 1 x4
Repeat Riff 2 x1
Repeat Riff 2B x3
Repeat Riff 4 x4


Enviada por Sem inscrição
Nº de acordes: 0