Decyfer Down

Unconcerned

Decyfer Down

3 exibições
  • Violão
  • Guitarra
  • Teclado
  • Cavaquinho
  • Contra-baixo
  • Bateria
  • Gaita
  • Guitar Pro
intro/verses
e-----------------------------------------------------------------|
B-----------------------------------------------------------------|
G----------------------2------------------------------------------|
D-----2h4--4--4--2-------2----------2h4---4------------4---4^-----|
A---0---------------0------0------2---------2--------5---5----5---|
D-0------0--0--0--0----------0--2-------2-----2--3/5--------------|

pre chorus

e-----------|
B-----------|
G-----------|
D--8--7--5--|
A--8--7--5--|
D--8--7--5--|

chorus

e--------------------------------------------------|
B--------------------------------------------------|
G--------------------------------------------------|
D-0--7--2--5--0--7--2--5--0--7--9--5--0--7--2--5---|
A-0--7--2--5--0--7--2--5--0--7--9--5--0--7--2--5---|
D-0--7--2--5--0--7--2--5--0--7--9--5--0--7--2--5---|

bridge

play with these notes    then go to this
e-----5---5-----------   --------------------------|
B-------7------------    --------------------------|
G--------------------    ----7--------7---7/9/7----|
D-0------------------    -5----7---5----7----------| repeat this twice
A-0------------------    -5--------5---------------|
D-0------------------    -5--------5---------------|

e--------------------------------------------|
B-10-8--7-----------10-8--7-----7h8----------|
G-7--7--7--7--7h9---7--7--7--7--7------------|
D----------7--7--------------7-----------7---|  repeat twice
A----------------------------------------5---|
D----------------------------------------5---|

during the solo and outro

e--------|
B--------|
G--------|
D-0--5---|
A-0--5---|
D-0--5---|

verse/intro
prechorus
chorus
verse
prechorus
chorus
bridge
solo
chorus
outro


Enviada por fred
Nº de acordes: 0