• Violão
  • Guitarra
  • Teclado
  • Cavaquinho
  • Contra-baixo
  • Bateria
  • Gaita
  • Guitar Pro
Intro x2
e:/--------------------------------------------------------------------------|
B:/--------------------------------------------------------------------------|
G:/--------------------------------------------------4h6h4h0-----------------|
D:/--2-02--4b--02-2-02--4b--02--55--7-5-7--55--4h5h4-------------------------|
A:/--2-02------02-2-02------02--55---------55--------------------------------|
D:/--2-02------02-2-02------02--55---------55--------------------------------|

Verse Rythms really easy to figure out x4
e:/--------------------------------------------------------------------------|
B:/--------------------------------------------------------------------------|
G:/--12------7------9--------------------------------------------------------|
D:/--12------7------9--------------------------------------------------------|
A:/--10------5------7--------------------------------------------------------|
D:/--10------5------7--------------------------------------------------------|

Pre Chorus
e:/--------------------------------------------------------------------------|
B:/--------------------------------------------------------------------------|
G:/--------------------------------------------------------------------------|
D:/-22222222--555555555555---------------------------------------------------|
A:/-22222222--555555555555---------------------------------------------------|
D:/-22222222--555555555555---------------------------------------------------|
              ............

Chorus
e:/--------------------------------------------------------------------------|
B:/--------------------------------------7-----------------------------------|
G:/----------------------------------7-9---7---------------------------------|
D:/-5-5-0--2-2-22-2-22-0--5-5--2-2--------------0-5-5-0-2-2-22-2-22-0-5-5-0--|
A:/-5-5-0--2-2-22-2-22-0--5-5--2-2--------------0-5-5-0-2-2-22-2-22-0-5-5-0--|
D:/-5-5-0--2-2-22-2-22-0--5-5--2-2--------------0-5-5-0-2-2-22-2-22-0-5-5-0--|
               ..   ..                                      ..   ..
e:/--------------------------------------------------------------------------|
B:/--------------------------------------------------------------------------|
G:/--------------------------------------------------------------------------|
D:/--22222-------------------------------------------------------------------|
A:/--22222-------------------------------------------------------------------|
D:/--22222-------------------------------------------------------------------|

Verse x4

Pre-Chorus

Bridge x4

e:/--------------------------------------------------------------------------|
B:/--------------------10----------------------------------------------------|
G:/-----7-9--------7-9-------------------------------------------------------|
D:/---------7----------------------------------------------------------------|
A:/--------------------------------------------------------------------------|
D:/--------------------------------------------------------------------------|

Chorus

Outro
e:/--------------------------------------------------------------------------|
B:/--------------------------------------------------------------------------|
G:/---------------------------------------------------4h6h4h0----------------|
D:/--2-02--4b--02-2-02--4b-02------55--7-5-7-55-4h5h4------------------------|
A:/--2-02------02-2-02-----02------55--------55------------------------------|
D:/--2-02------02-2-02-----02------55--------55------------------------------|

e:/--------------------------------------------------------------------------|
B:/--------------------------------------------------------------------------|
G:/----------------------------------------------------7h9h7h0---------------|
D:/--2-02--4b--02-2-02--4b-02------55---7-5-7-55-4h5h4-----------------------|
A:/--2-02------02-2-02-----02------55---------55-----------------------------|
D:/--2-02------02-2-02-----02------55---------55-----------------------------|

Then End with this
e:/--------------------------------------------------------------------------|
B:/--------------------------------------------------------------------------|
G:/--------------------------------------------------------------------------|
D:/--257-0~~~~~~-------------------------------------------------------------|
A:/--257-0~~~~~~-------------------------------------------------------------|
D:/--257-0~~~~~~-------------------------------------------------------------|
     ...


Enviada por fred
Nº de acordes: 0