• Violão
  • Guitarra
  • Teclado
  • Cavaquinho
  • Contra-baixo
  • Bateria
  • Gaita
  • Guitar Pro
Intro
clean           Arr. for one guitar
e|------------------------------------------------------------------------|
b|---------3-------------------------------------------------0------------|
g|-----0-----0---------------0-----------------0---------------0----------|
d|----5--------5------4--------4----------4------4-------4-------4--------|
a|---3---3----------5------------5------2----------2---2-----------2--(0)-|
D|----------------0------0---------0--2-----2--------2-----0--------------|


e|--------------------------------------------------------------0---------|
b|----------3-----------------------------------------------------0-------|
g|------------0-----------0----------------------0---------0--------0-----|
d|----4---4----4-----4-------4----4----------4-----4----------------------|
a|---3---3----------5-----------5----------2---------2---2---2------------|
D|----------------0-----0------------(0)--2-----2-------2-----------------|

clean                           Verse
e|------------------------------------------------------------------------|
b|---------3-------------------------------------------------0------------|
g|-----0-----0---------------0-----------------0---------------0----------|
d|----5--------5------4--------4----------4------4-------4-------4--------|
a|---3---3----------5------------5------2----------2---2-----------2--(0)-|
D|----------------0------0---------0--2-----2--------2-----0--------------|

e|--------------------------------------------------------------0---------|
b|----------3-----------------------------------------------------0-------|
g|------------0-----------0----------------------0---------0--------0-----|
d|----4---4----4-----4-------4----4----------4-----4----------------------|
a|---3---3----------5-----------5----------2---------2---2---2------------|
D|----------------0-----0------------(0)--2-----2-------2-----------------|

                                 Chorus

  p.m.***  w/dist               gtr.1

e|----------------------5-5-5-5-5-5-5----------------------------------------|
b|----------------------5-5-5-5-5-5-5----------------------------------------|
g|---------7--7-7-7--5--5-5-5-5-5-5-5---11-11-11-11-/-12--12-12--12-\-11--11-|
d|-0--0-0--7--7-7-7--5--5-5-5-5-5-5-5-4--*--*--*--*----*---*--*---*----*-----|
a|-0--0-0--5--5-5-5--3--3-3-3-3-3-3-3-2--9--9--9--9-/-10--10-10--10-\--9---9-|
D|-0--0-0-----------------------------2--------------------------------------|

e|---------------3-3-3-3-3-3-3-----------------------------------------------|
b|---------------3-3-3-3-3-3-3-----------------------------------------------|
g|-7-7-7-7-----5-5-5-5-5-5-5-5------11-11--11-\-9---7------------------------|
d|-7-7-7-7-----5-5-5-5-5-5-5-5---4--*--*---*----*---*------------------------|
a|-5-5-5-5-----3-3-3-3-3-3-3-3---2--9--9---9--\-7---5------------------------|
D|-------------------------------2-------------------------------------------|

e|---------------------------------------------------------------------------|
b|---------------------------------------------------------------------------|
g|-5--5-5-5--7--7-7-7-7-7-7-7---------11-11-11-11-/--12---12-12--12-\--11-11-|
d|-5--5-5-5--7--7-7-7-7-7-7-7--4--4-4--*--*--*--*-----*----*--*---*-----*--*-|
a|-3--3-3-3--5--5-5-5-5-5-5-5--4--4-4--9--9--9--9-/--10---10-10--10-\---9--9-|
D|-----------------------------2--2-2----------------------------------------|

e|---------------3-3-3-3-3-3-3-----------------------------------------------|
b|---------------3-3-3-3-3-3-3-----------------------------------------------|
g|-7-7-7-7-----5-5-5-5-5-5-5-5-----------------------------------------------|
d|-7-7-7-7-----5-5-5-5-5-5-5-5---2--2--2-2-2-2-2-2-2-2-----------------------|
a|-5-5-5-5-----3-3-3-3-3-3-3-3---2--2--2-2-2-2-2-2-2-2-----------------------|
D|-------------------------------2--2--2-2-2-2-2-2-2-2-----------------------|


clean                           Verse
e|------------------------------------------------------------------------|
b|---------3-------------------------------------------------0------------|
g|-----0-----0---------------0-----------------0---------------0----------|
d|----5--------5------4--------4----------4------4-------4-------4--------|
a|---3---3----------5------------5------2----------2---2-----------2--(0)-|
D|----------------0------0---------0--2-----2--------2-----0--------------|


e|--------------------------------------------------------------0---------|
b|----------3-----------------------------------------------------0-------|
g|------------0-----------0----------------------0---------0--------0-----|
d|----4---4----4-----4-------4----4----------4-----4----------------------|
a|---3---3----------5-----------5----------2---------2---2---2------------|
D|----------------0-----0------------(0)--2-----2-------2-----------------|

e|------------------------------------------------------------------------|
b|---------3-------------------------------------------------0------------|
g|-----0-----0---------------0-----------------0---------------0----------|
d|----5--------5------4--------4----------4------4-------4-------4--------|
a|---3---3----------5------------5------2----------2---2-----------2--(0)-|
D|----------------0------0---------0--2-----2--------2-----0--------------|


e|--------------------------------------------------------------0---------|
b|----------3-----------------------------------------------------0-------|
g|------------0-----------0----------------------0---------0--------0-----|
d|----4---4----4-----4-------4----4----------4-----4----------------------|
a|---3---3----------5-----------5----------2---------2---2---2------------|
D|----------------0-----0------------(0)--2-----2-------2-----------------|

e|------------------------------------------------------------------------|
b|---------3-------------------------------------------------0------------|
g|-----0-----0---------------0-----------------0---------------0----------|
d|----5--------5------4--------4----------4------4-------4-------4--------|
a|---3---3----------5------------5------2----------2---2-----------2--(0)-|
D|----------------0------0---------0--2-----2--------2-----0--------------|


e|--------------------------------------------------------------0---------|
b|----------3-----------------------------------------------------0-------|
g|------------0-----------0----------------------0---------0--------0-----|
d|----4---4----4-----4-------4----4----------4-----4----------------------|
a|---3---3----------5-----------5----------2---------2---2---2------------|
D|----------------0-----0------------(0)--2-----2-------2-----------------|


                                 Chorus

  p.m.***  w/dist               gtr.1
e|----------------------5-5-5-5-5-5-5----------------------------------------|
b|----------------------5-5-5-5-5-5-5----------------------------------------|
g|---------7--7-7-7--5--5-5-5-5-5-5-5---11-11-11-11-/-12--12-12--12-\-11--11-|
d|-0--0-0--7--7-7-7--5--5-5-5-5-5-5-5-4--*--*--*--*----*---*--*---*----*-----|
a|-0--0-0--5--5-5-5--3--3-3-3-3-3-3-3-2--9--9--9--9-/-10--10-10--10-\--9---9-|
D|-0--0-0-----------------------------2--------------------------------------|

e|---------------3-3-3-3-3-3-3-----------------------------------------------|
b|---------------3-3-3-3-3-3-3-----------------------------------------------|
g|-7-7-7-7-----5-5-5-5-5-5-5-5------11-11--11-\-9---7------------------------|
d|-7-7-7-7-----5-5-5-5-5-5-5-5---4--*--*---*----*---*------------------------|
a|-5-5-5-5-----3-3-3-3-3-3-3-3---2--9--9---9--\-7---5------------------------|
D|-------------------------------2-------------------------------------------|

e|---------------------------------------------------------------------------|
b|---------------------------------------------------------------------------|
g|-5--5-5-5--7--7-7-7-7-7-7-7---------11-11-11-11-/-12--12-12--12-\-11--11---|
d|-5--5-5-5--7--7-7-7-7-7-7-7--4--4-4--*--*--*--*----*---*--*---*----*---*---|
a|-3--3-3-3--5--5-5-5-5-5-5-5--4--4-4--9--9--9--9-/-10--10-10--10-\--9---9---|
D|-----------------------------2--2-2----------------------------------------|

e|---------------3-3-3-3-3-3-3-----------------------------------------------|
b|---------------3-3-3-3-3-3-3-----------------------------------------------|
g|-7-7-7-7-----5-5-5-5-5-5-5-5-----------------------------------------------|
d|-7-7-7-7-----5-5-5-5-5-5-5-5---2--2--2-2-2-2-2-2-2-2-----------------------|
a|-5-5-5-5-----3-3-3-3-3-3-3-3---2--2--2-2-2-2-2-2-2-2-----------------------|
D|-------------------------------2--2--2-2-2-2-2-2-2-2-----------------------|

                                  Bridge

repeat 3x    clean
e|------------------------------------------------------------------|
b|-----0------------------------------------------------------------|
g|----0--0----------------------------------------------------------|
d|---4----0--------5h7-5-----0----4\2-0------4---4b-1/2-------------|
a|--2---------------------------------------2-----------------------|
D|-2----------2/5-5------0-0---0-----------2---2--------------------|


                                       w/dist. -----
e|------------------------------------------------------------------|
b|-----0------------------------------------------------------------|
g|----0--0----------------------------------------------------------|
d|---4----0--------5h7-5-----0----4\2-0----2----2-2-2---------------|
a|--2--------------------------------------2----2-2-2---------------|
D|-2----------2/5-5------0-0---0-----------2----2-2-2---------------|


     w/dist
e|------------------5-5-5-5-5-5-5----------------------------------------|
b|------------------5-5-5-5-5-5-5----------------------------------------|
g|-----7--7-7-7--5--5-5-5-5-5-5-5---11-11-11-11-/-12--12-12--12-\-11--11-|
d|-----7--7-7-7--5--5-5-5-5-5-5-5-4--*--*--*--*----*---*--*---*----*-----|
a|-----5--5-5-5--3--3-3-3-3-3-3-3-2--9--9--9--9-/-10--10-10--10-\--9---9-|
D|--------------------------------2--------------------------------------|

e|---------------3-3-3-3-3-3-3---------------------------------------------|
b|---------------3-3-3-3-3-3-3---------------------------------------------|
g|-7-7-7-7-----5-5-5-5-5-5-5-5------11-11--11-\-9---7----------------------|
d|-7-7-7-7-----5-5-5-5-5-5-5-5---4--*--*---*----*---*----------------------|
a|-5-5-5-5-----3-3-3-3-3-3-3-3---2--9--9---9--\-7---5----------------------|
D|-------------------------------2-----------------------------------------|

e|-------------------------------------------------------------------------|
b|-------------------------------------------------------------------------|
g|-5--5-5-5--7--7-7-7-7-7-7-7-----------11-/-12---12-12--12-\-11--11-------|
d|-5--5-5-5--7--7-7-7-7-7-7-7--4--4-4---*----*----*--*---*----*---*--------|
a|-3--3-3-3--5--5-5-5-5-5-5-5--4--4-4---9-/--10---10-10--10-\-9---9--------|
D|-----------------------------2--2-2--------------------------------------|

e|---------------3-3-3-3-3-3-3---------------------------------------------|
b|---------------3-3-3-3-3-3-3---------------------------------------------|
g|-7-7-7-7-----5-5-5-5-5-5-5-5---------------------------------------------|
d|-7-7-7-7-----5-5-5-5-5-5-5-5---2--2--2-2-2-2-2-2-2-2---------------------|
a|-5-5-5-5-----3-3-3-3-3-3-3-3---2--2--2-2-2-2-2-2-2-2---------------------|
D|-------------------------------2--2--2-2-2-2-2-2-2-2---------------------|

e|------------------5-5-5-5-5-5-5----------------------------------------|
b|------------------5-5-5-5-5-5-5----------------------------------------|
g|-----7--7-7-7--5--5-5-5-5-5-5-5---11-11-11-11-/-12--12-12--12-\-11--11-|
d|-----7--7-7-7--5--5-5-5-5-5-5-5-4--*--*--*--*----*---*--*---*----*-----|
a|-----5--5-5-5--3--3-3-3-3-3-3-3-2--9--9--9--9-/-10--10-10--10-\--9---9-|
D|--------------------------------2--------------------------------------|

e|---------------3-3-3-3-3-3-3---------------------------------------------|
b|---------------3-3-3-3-3-3-3---------------------------------------------|
g|-7-7-7-7-----5-5-5-5-5-5-5-5---------------------------------------------|
d|-7-7-7-7-----5-5-5-5-5-5-5-5---2--2-2-2--2-------------------------------|
a|-5-5-5-5-----3-3-3-3-3-3-3-3---2--2-2-2--2-------------------------------|
D|-------------------------------2--2-2-2--2-------------------------------|


                          Outro

repeat and fade
e|------------------------------------------------------------------|
b|-----0------------------------------------------------------------|
g|----0--0----------------------------------------------------------|
d|---4----0--------5h7-5-----0----4\2-0------4---4b-1/2-------------|
a|--2---------------------------------------2-----------------------|
D|-2----------2/5-5------0-0---0-----------2---2--------------------|


Enviada por fred
Nº de acordes: 0