Dave Van Ronk

Frankies Blues

Dave Van Ronk

4 exibições
  • Violão
  • Guitarra
  • Teclado
  • Cavaquinho
  • Contra-baixo
  • Bateria
  • Gaita
  • Guitar Pro
1 D
E-2---------2----0-h1--s2-|-2--------2-----0-h1--s2-|-2---------2----0-h1--s2-|
B-3---------3-------------|-3--------3--------------|-3---------3-------------|
G-2---------2----0-h1--s2-|-2--------2-----0-h1--s2-|-2---------2----0-h1--s2-|
D-------0-----------0-----|-------0-----------0-----|-------0-----------0-----|
A-------------------------|-------------------------|-------------------------|
D-0-----------0-----------|-0-----------0-----------|-0-----------0-----------|
  |     |     |     |       |     |     |     |       |     |     |     |


4 D                         G
E-2---------2-------2-----|----------------------0--|-------------------------|
B-3---------3-------------|-0-----0-----0--3--------|-6--5-----3--------0-----|
G-2---------2-------------|----3-----3--------------|----------------3-----3--|
D-------0-----------0-----|-------0-----------0-----|-------0-----------0-----|
A-------------------------|-------------------------|-------------------------|
D-0-----------0-----------|-5-----------5-----------|-5-----------5-----------|
  |     |     |     |       |     |     |     |       |     |     |     |


7                           D                         A
E----------------------0--|-----------2-------------|---------------(5)-------|
B-0-----0-----0--3--------|-3---------3----------3--|-------5--------5--------|
G----3-----3--------------|-2---------2----------2--|-5-h6-----5-h6-----5-h6--|
D-------0-----------0-----|-------0-----------0-----|-------7-----------7-----|
A-------------------------|-------------------------|-0-----------0-----------|
D-5-----------5-----------|-0-----------0-----------|-------------------------|
  |     |     |     |       |     |     |     |       |     |     |     |


10                          D
E-5-------(5)---(5)-------|-2---------2----0-h1-s2--|-2---------2----0-h1-s2--|
B-5--------8-----7--------|-3---------3-------------|-3---------3-------------|
G-------------------------|-2---------2----0-h1-s2--|-2---------2----0-h1-s2--|
D-------7-----------7-----|-------0-----------0-----|-------0-----------0-----|
A-0-----------0-----------|-------------------------|-------------------------|
D-------------------------|-0-----------0-----------|-0-----------0-----------|
  |     |     |     |       |     |     |     |       |     |     |     |


Enviada por Sem inscrição
Nº de acordes: 3