Dave Days

Sunny D And Double Bed Intruder Mashup

Dave Days

17 exibições
  • Violão
  • Guitarra
  • Teclado
  • Cavaquinho
  • Contra-baixo
  • Bateria
  • Gaita
  • Guitar Pro
Tabbed by: su_peer

Tuning:Standart
Intro: 

e|---------------------------------------------------------------------------|
B|-1-1-----1-1-----1---1-3-4-3-1-3---5-3-1-3-1-5-----------------------------|
G|-----2-2-----2-2---2-------------------------------------------------------|
D|---------------------------------5-----------------------------------------|
A|---------------------------------------------------------------------------|
E|---------------------------------------------------------------------------|


e|---------------------------------------------------------------------------|
B|-1-1-----1-1-----1---1-3-4-3-1-3---5-3-1-3-1-5-3-1-------------------------|
G|-----2-2-----2-2---2-------------------------------2-----------------------|
D|---------------------------------5-----------------------------------------|
A|---------------------------------------------------------------------------|
E|---------------------------------------------------------------------------|


A                    F                 C                  G
Woah, thats a Full rainbow all the way! Double Rainbow OMG, Double rainbow!

A                            F
Its A double rainbow all the way. (Damn!) 
          C                G
All the way. My Daddy taught me good.

F                                   A                  G 
Back'in up Back'in up (All the Way). We gonna find you! We gonna find you!
F                                   A          G           F -> G (LetRing)
Back'in up Back'in up (All the Way). My Daddy Taught me good!
A
He’s climbing in your windows.He’s snatchin your people up
E
Tryna rape em so y’all need to
F
Hide your kids, hide your wife
A
Hide your kids, hide your wife
A
Hide your kids, hide your wife
E
And hide your husband
F
Cuz they’re rapin errbody out there

A
You don't need to confess, we're looking for you.
E                   F
We gonna find you, we gonna find you. 
A
Run and tell that (that)
A
Run and tell that (that)
E                F
homeboy,homeboy, Home, home, homeboy

(Solo bit: Same as Intro)
Chords for Solo: A,E,F


A                
Double rainbow, double rainbow
        A                          F              C       G
d-d-d-d Double rainbow all the way across the sky, Yeah, Yeeeeaaah! (so intense)
A                            F             C       G
Double rainbow all the way across the sky. Oh my god!
F                                    A                  G
Back'in up Back'in up (All the Way). We gonna find you! We gonna find you!
F                                    A               G       F -> G (Ring)
Back'in up Back'in up (All the Way). My Daddy Taught me good!

(ok)

A
He’s climbing in your windows.He’s snatchin your people up
E
Tryna rape em so y’all need to
F
Hide your kids, hide your wife
A
Hide your kids, hide your wife
A
Hide your kids, hide your wife
E
And hide your husband
F
Cuz they’re rapin errbody out there

A                                          E
Double rainbow all the way across the sky. We gonna find you!
F
We gonna find you!
A
Run and tell that (that)
A
Run and tell that (that)
E                 F
homeboy, homeboy, Home, home, homeboy

(Synth starts)
C      F          A        G 
Sunny D and rum, yum yum     (yum)

(Sunny D and Rum) (X4)

-------------------------
That's it! Any Questions to: alleaussis@gmail.com
End :)


Enviada por Sem inscrição
Nº de acordes: 5