Cartel

Wasted

Cartel

12 exibições
  • Violão
  • Guitarra
  • Teclado
  • Cavaquinho
  • Contra-baixo
  • Bateria
  • Gaita
  • Guitar Pro
Tabbed by:Jordan
Email:Jordangrainger@hotmail.co.uk

Tuning: Down Half Step

Intro and Verses:

e|-------------------------|
B|-----8~-6-5~--5---5------|
G|---5------------7---7~---|
D|-5-----------------------|
A|-------------------------|
E|-------------------------|

Pre-Chorus (not on guitar):

e|-------|
B|-8~----|
G|-5~----|
D|-5~----|
A|-------|
E|-------|

Chorus (not on guitar):

e|----------------------|
B|-8-88-8-8-8-88-8-8----|
G|-7-77-7-7-5-55-5-5----| repeat until end of chorus
D|-5-55-5-5-5-55-5-5----|
A|----------------------|
E|----------------------|


Bridge 'Well hes 23 now':

change section on chord change

e|------------------|--------------------|----------------|
B|--------11~-------|--------10~---------|-------8~-------| x2 last section
G|----7-------7---7-|---10-------10---10-|---7-----7---5--|
D|--8---8-------8---|-7----7--------7----|-5---5-----5----|
A|------------------|--------------------|----------------|
E|------------------|--------------------|----------------|



Enviada por Sem inscrição
Nº de acordes: 1