Cartel

No Subject

Cartel

6 exibições
  • Violão
  • Guitarra
  • Teclado
  • Cavaquinho
  • Contra-baixo
  • Bateria
  • Gaita
  • Guitar Pro
Verse x4
e|---------------------------------------------------------------------------|
B|---------------------------------------------------------------------------|
G|--6666666666666666-------------------------------------------------7-------|
D|--7777777777777777--555-77--9999999--77----On the last time, do----7--x6---|
A|--7777777777777777--555-77--9999999--77----------------------------5-------|
E|--------------------555-77--9999999--77------------------------------------|

Chorus x1
e|---------------------------------------------------------------------------|
B|---------------------------------------------------------------------------|
G|---6666-----------6666-----------6666-----------6666-----------------------|
D|---7777--5555555--7777--5555555--7777--5555555--7777--5555555--------------|
A|---7777--5555555--7777--5555555--7777--5555555--7777--5555555--------------|
E|---------5555555--------5555555--------5555555--------5555555--------------|

e|---------------------------------------------------------------------------|
B|---------------------------------------------------------------------------|
G|---------------------------------------------------------------------------|
D|-777777777777-555555555555-777777777777-555555555555-777777777777----------|
A|-777777777777-555555555555-777777777777-555555555555-777777777777----------|
E|-777777777777-555555555555-777777777777-555555555555-777777777777----------|

e|---------------------------------------------------------------------------|
B|---------------------------------------------------------------------------|
G|---------------------------------------------------------------------------|
D|-555555555555-777777777777-555555555555-7----------------------------------|
A|-555555555555-777777777777-555555555555-7----------------------------------|
E|-555555555555-777777777777-555555555555-7----------------------------------|

Verse x4
e|---------------------------------------------------------------------------|
B|---------------------------------------------------------------------------|
G|--6666666666666666-------------------------------------------------7-------|
D|--7777777777777777--555-77--9999999--77----On the last time, do----7--x6---|
A|--7777777777777777--555-77--9999999--77----------------------------5-------|
E|--------------------555-77--9999999--77------------------------------------|

Chorus
e|--------------------------------------------------------------|------------|
B|--------------------------------------------------------------|---[1:34]---|
G|---6666-----------6666-----------6666-----------6666----------|------------|
D|---7777--5555555--7777--5555555--7777--5555555--7777--5555555-|--77777777--|
A|---7777--5555555--7777--5555555--7777--5555555--7777--5555555-|--77777777--|
E|---------5555555--------5555555--------5555555--------5555555-|--77777777--|

Bridge [1:37]
e|---------------------------------------------------------------------------|
B|---------------------------------------------------------------------------|
G|---------------------------------------------------------------------------|
D|-555555555555-777777777777-555555555555-777777777777-555555555555----------|
A|-555555555555-777777777777-555555555555-777777777777-555555555555----------|
E|-555555555555-777777777777-555555555555-777777777777-555555555555----------|

e|--------------------------------------------------------------|
B|--------------------------------------------------------------|
G|--------------------------------------------------------------|
D|--777777777777-555555555555-777777777777-55555--77777---------|
A|--777777777777-555555555555-777777777777-55555--77777---------|
E|--777777777777-555555555555-777777777777-55555--77777---------|
[2:02]
e|--------------------|
B|--------------------|
G|---666666666-xx-----|
D|---666666666-xx-----|
A|---777777777-xx-----|
E|--------------------|

Chorus x1 [2:05]
e|---------------------------------------------------------------------------|
B|---------------------------------------------------------------------------|
G|---6666-----------6666-----------6666-----------6666-----------------------|
D|---7777--5555555--7777--5555555--7777--5555555--7777--5555555--------------|
A|---7777--5555555--7777--5555555--7777--5555555--7777--5555555--------------|
E|---------5555555--------5555555--------5555555--------5555555--------------|

e|---------------------------------------------------------------------------|
B|---------------------------------------------------------------------------|
G|---------------------------------------------------------------------------|
D|-777777777777-555555555555-777777777777-555555555555-777777777777----------|
A|-777777777777-555555555555-777777777777-555555555555-777777777777----------|
E|-777777777777-555555555555-777777777777-555555555555-777777777777----------|


e|---------------------------------------------------------------------------|
B|---------------------------------------------------------------------------|
G|---------------------------------------------------------------------------|
D|-555555555555-777777777777-555555555555-7~~--------------------------------|
A|-555555555555-777777777777-555555555555-7~~--------------------------------|
E|-555555555555-777777777777-555555555555-7~~--------------------------------|



Enviada por Sem inscrição
Nº de acordes: 0