Cartel

If I Fail

Cartel

2 exibições
Standard Tuning

E-----------------------------------------------------------|
B-----------------------------------------------------------|
G-------------------6---------------------------------------|
D-------------------6----------------4----------------------|
A-------------------4----------------4----------------------|
E------------------------------------2----------------------|
   If you feel the same way,   Then how can we be friends

E-----------------------------------------------------------|
B-----------------------------------------------------------|
G-------------------3---------------------------------------|
D-------------------3--------------------------------4------|
A-------------------1--------------------------------4------|
E----------------------------------------------------2------|

             He's right you know we can't go on like this

A few muted strokes here    you will hear them


E-----------------------------------------------------|
B-----------------------------------------------------|
G-------------------6---------------------------------|
D-------------------6----------4----------------------|
A-------------------4----------4----------------------|
E------------------------------2----------------------|
          and oh oh I try to give you everything

E----------------------------------------------------|
B----------------------------------------------------|
G------------3---------------------------------------|
D------------3----------------------------4----------|
A------------1----------------------------4----------|
E-----------------------------------------2----------|

  And if I Fail well then I fail but at least I gave you something


Enviada por Sem inscrição
Nº de acordes: 0