Cartel

Honestly

Cartel

9 exibições
Intro
|--6-4---------------|
|------7-6-4-6-4-----|
|-----------------6--|
|--------------------|
|--------------------|
|--------------------|
Verse:
|--------------------------------------------|
|--------------------------------------------|
|-6-6-6-6--6-6-6-6---6-6-6-6--6-6-6-6-6-6----|
|-6-6-6-6--6-6-6-6---6-6-6-6--6-6-6-6-6-6----|
|-x-x-x-x--4-4-3-3---x-x-x-x--4-4-3-3h4p3----|
|-4-4-6-6------------4-4-6-6-----------------|

Pre-chorus
|-----------------|
|-----------------|
|-6-6-6~--6-6-6~--|
|-6-6-6~--6-6-6~--|
|-x-x-x~--x-x-4~--|
|-8-6-4~--8-6-----|

Chorus
|-----------------------------------------------------------------|
|-----------------------------------------------------------------|
|-6-6-6-6-6-6-6-6-6-6-6-6-6-6-6-6-6-6-6-6-6-6-6-6-6-6-6-6-6-6-6-6-|
|-6-6-6-6-6-6-6-6-6-6-6-6-6-6-6-6-6-6-6-6-6-6-6-6-6-6-6-6-6-6-6-6-|
|-4-4-4-4-4-4-4-4-x-x-x-x-x-x-x-x-x-x-x-x-x-x-x-x-x-x-x-x-x-x-x-x-|
|-----------------8-8-4-4-4-4-4-4-4-4-6-6-8-8-8-8-6-6-6-6-4-4-4-4-|

|--------------|
|--------------|
|-6-6-6-6-6-6--|
|-6-6-6-6-6-6--|
|-x-x-x-x-x-x--|
|-6-6-6-6-6-6--|


Enviada por Sem inscrição
Nº de acordes: 0