• Violão
  • Guitarra
  • Teclado
  • Cavaquinho
  • Contra-baixo
  • Bateria
  • Gaita
  • Guitar Pro
s-Slide
h-hammer
p-pull-off
                             
Intro/Verse
e|---7----0----7----0----0---|----------------------------------------------|
B|---7----7----7----7----7---|----------------------------------------------|
G|---8----8----8----8----8--o|----------------------------------------------|
D|---9----9----9----9----9--o|----------------------------------------------|
A|---9----9----9----9----0---|----------------------------------------------|
E|---7----0----7----0----0---|----------------------------------------------|



Pre-Chourus/Chorus
e|---5-----0------7-------2-------0---------5---------7---------------------|
B|---5-----0------7-------2-------0---------5---------7---------------------|
G|---6-----1------8-------3-------1---------6---------6---------------------|
D|---7-----2------9-------4-------2---------7---------9---------------------|
A|---7-----2------9-------4-------2---------7---------9---------------------|
E|---5-----0------7-------2-------0---------5---------7---------------------|
   Why| Didnt |you come| Back.. | give..| whatever | You want



Enviada por Sem inscrição
Nº de acordes: 0