Boyce Avenue

One (u2)

Boyce Avenue

431 exibições
  • Violão
  • Guitarra
  • Teclado
  • Cavaquinho
  • Contra-baixo
  • Bateria
  • Gaita
  • Guitar Pro
Tuning: D  G  C  F  A#  D

x = mute
^ = hammer on or pull off
/ = slide

Intro: 
-----0-------0------------------------|
-----0-------0------------------------|
-------7-5^7---5^7^5-----7-5^7^5-7---|
---7-------------------7---5^7^5-7---|
-0-------------------5-----5----------|
--------------------------------------|

-----0-------0--------------------------|
-------2-0^2---0^2^0--------------------|
---2----------------------4-4^5^4-5-4^0-|
-3-------------------3/5----------------|
----------------------------------------|
----------------------------------------|

Verse #1:
---------0-----------------------0-------------3-------|
-------0------------0----------0---0---0-----0---0-----|
-----7---7(b9)-----7---7----0^2-------2-----4-------4^0-|
---7------------7--------3---------------5-------------|
-0------------5----------------------------------------|
-------------------------------------------------------|

---------0-----------------------0-------------3-------|
-------0------------0----------0---0---0-----0---0-----|
-----7---7(b9)-----7---7----0^2-------2-----4-------4^0-|
---7------------7--------3---------------5-------------|
-0------------5----------------------------------------|
-------------------------------------------------------|

Chorus #1: (play 2x)
-0----0----0----0-|
-0----0----0----0-|
-0----2----2----0-|
-2----2----3----2-|
-3----0----3----3-|
-----------1------|

Turnaround #1/Verse #2:
-----0----0--0-0---------0------0------0-----------|
-----0----0--0-0---------0------0------0-0-0---0---|
-----7(b9)-(b9)-7-5-5^7-7-7-7--2-2-2------4-5-4-5-4-0-|
-----9/10-10-(b9)7-7---7-7-7--3-3-3--5-5-5-5-5-------|
-0-0------0--0-0-----5-5-5--3-3-3--x-x-x-----------|
-----------------------------------3-3-3-----------|

-----0----0--0-0---------0------0------0-----------|
-----0----0--0-0---------0------0------0-0-0---0---|
-----7(b9)-(b9)-7-5-5^7-7-7-7--2-2-2------4-5-4-5-4-0-|
-----9/10-10-(b9)7-7---7-7-7--3-3-3--5-5-5-5-5-------|
-0-0------0--0-0-----5-5-5--3-3-3--x-x-x-----------|
-----------------------------------3-3-3-----------|

-----0----0--0-0---------0------0------0-----------|
-----0----0--0-0---------0------0------0-0-0---0---|
-----7(b9)-(b9)-7-5-5^7-7-7-7--2-2-2------4-5-4-5-4-0-|
-----9/10-10-(b9)7-7---7-7-7--3-3-3--5-5-5-5-5-------|
-0-0------0--0-0-----5-5-5--3-3-3--x-x-x-----------|
-----------------------------------3-3-3-----------|

Chorus #2: (play 2x)
-0----0----0----0-|
-0----0----0----0-|
-0----2----2----0-|
-2----2----3----2-|
-3----0----3----3-|
-----------1------|

Turnaround #2:
-----0----0--0-0---------0------0------0-----------|
-----0----0--0-0---------0------0------0-0-0---0---|
-----7(b9)-(b9)-7-5-5^7-7-7-7--2-2-2------4-5-4-5-4-0-|
-----9/10-10-(b9)7-7---7-7-7--3-3-3--5-5-5-5-5-------|
-0-0------0--0-0-----5-5-5--3-3-3--x-x-x-----------|
-----------------------------------3-3-3-----------|

-----0----0--0-0---------0------0------0---------------0-|
-----0----0--0-0---------0------0------0-0-0---0-------0-|
-----7(b9)-(b9)-7-5-5^7-7-7-7--2-2-2------4-5-4-5-4-0-----4-|
-----9/10-10-(b9)7-7---7-7-7--3-3-3--5-5-5-5-5-------5-5-5-|
-0-0------0--0-0-----5-5-5--3-3-3--x-x-x-----------x-x-x-|
-----------------------------------3-3-3-----------3-3-3-|

Let It Be:
-0----0----0----0----0----0----0----0--0-|
-0----2----0----0----0----2----0----0--2-|
-2----0----0----2----2----0----2----0--0-|
-2----0----2----3----2----0----3----2--0-|
-0----2----3----3----0----2----3----3--2-|
----------------1--------------1---------|

-0----0----0----0----0----0----0----0--0-|
-0----2----0----0----0----2----0----0--2-|
-2----0----0----2----2----0----2----0--0-|
-2----0----2----3----2----0----3----2--0-|
-0----2----3----3----0----2----3----3--2-|
----------------1--------------1---------|

Chorus #3: (play 5x)
-0----0----0----0-|
-0----0----0----0-|
-0----0----0----0-|
-5----2----3----5-|
-3----0----3----3-|
-----------1------|


Enviada por tinho
Nº de acordes: 5