• Violão
  • Guitarra
  • Teclado
  • Cavaquinho
  • Contra-baixo
  • Bateria
  • Gaita
  • Guitar Pro
Main Riff:

e|--------0--------0-----0-----0---------0----------0-----0-----0---------|
C|-----0--------0----------------------0---------0------------------------|
G|--4--------2--------4-----2-----0--------------------0------------------|
D|-----------------------------------------2h4---------------2------------|
A|------------------------------------------------------------------------|
E|------------------------------------------------------------------------|

e|-----------0------------0------------0------------0------|
C|-----0------------0------------0------------0------------|
G|--------0------------0------------0------------0---------|
D|--4------------2------------0----------------------------|
A|-----------------------------------------2-----------0---|
E|---------------------------------------------------------|


e|------------3-----------------------3-----------|
B|------1-----------1-----------1-----------1-----|
G|---0-----0-----0-----0-----0-----0-----0-----0--|
D|------------------------2-----------------------|
A|------------------------------------------------|
E|------------------------------------------------|


e|----------0-----------0-----------0-----------0------|
C|----0-----------0-----------0-----------0------------|
G|-------0-----------0-----------0-----------0---------|
D|--4----------2-----------0---------------------------|
A|-------------------------------------2-----------0---|
E|-----------------------------------------------------|

e|------------3-----------------------3-----------|
B|------1-----------1-----------1-----------1-----|
G|---0-----0-----0-----0-----0-----0-----0-----0--|
D|------------------------2-----------------------|
A|------------------------------------------------|
E|------------------------------------------------|

Intro: main riff x1

Verse 1: (main riff x2)
one spur in the fire, burning
now we're clearing the embers away
there are many ways this way
so I tell you like you're meant to
and you're quick to guess my choice

    |  |  |    ||  |  |  |  |    
e|--------------0---------------|
C|-------------0----------------|
G|-----0-----------4--2--0------|
D|--2-----2h4---------------2---|  (this fill is played here istead, listen 
A|------------------------------|   to the recording for timing) 
E|------------------------------|

was it my trembling hand or my voice?


Break:

e|-------------3-----------------------3-----------|
B|-------1-----------1-----------1-----------1-----|
G|----0-----0-----0-----0-----0-----0-----0-----0--|
D|-2-----------------------2-----------------------| x3
A|-------------------------------------------------|
E|-------------------------------------------------|


Verse 2: (Main riff x1)
she said you're stirring
tossing, turning
just like you were in the night
I am sure your choice is right


main riff x1

Verse 3: (main riff x2)
I've always been a coward
been a coward to this day
there are many ways this way
and your fortune taken from you
by men that always say
there are many ways this way


Outro:


e|---------0---------0----------0------------------|
C|-------0---------0----------0--------------------|
G|-------------------------------------------------|
D|--3h5-------5h7-------7h9--------9--7--5—3h5-----|
A|-------------------------------------------------|
E|-------------------------------------------------|

e|-----------0-----------0-----------0-----------0--|
C|-----0-----------0-----------0-----------0--------|
G|--------0-----------0-----------0-----------0-----|  
D|--2-----------2-----------2-----------2-----------|
A|--------------------------------------------------|
E|--------------------------------------------------|

e|----------0-----------0-----------0-----------0-----------0---|
C|----0-----------0-----------0-----------0-----------0---------|
G|-------0-----------0-----------0-----------0-----------0------|
D|--4----------2-----------0------------------------------------|
A|-------------------------------------2-----------0------------|
E|--------------------------------------------------------------|

e|------------3-----------------------3-----------|
B|------1-----------1-----------1-----------1-----|
G|---0-----0-----0-----0-----0-----0-----0-----0--| x3
D|------------------------2-----------------------|
A|------------------------------------------------|
E|------------------------------------------------|


Main riff x1

End on 


e|-----|
C|--0--|
G|--0--|
D|--2--|
A|--0--|
E|-----|


Enviada por Sem inscrição
Nº de acordes: 0