Bombay Bicycle Club

Emergency Contraception Blues

Bombay Bicycle Club

3 exibições
  • Violão
  • Guitarra
  • Teclado
  • Cavaquinho
  • Contra-baixo
  • Bateria
  • Gaita
  • Guitar Pro
riff I
introduction
e|---------------------------------------------------------------------------|
B|---------------------------------------------------------------------------|
G|-11-13-11-9-11-9--9-6-(0)---(0)-6-66-666-77-88-9-9-99-9--------------------|
D|-x--x--x--x-x--x--x-x-(0)-4-(0)-x-xx-xxx-xx-xx-x-x-xx-x--------------------|
A|-9--11-9--7-9--7--4/11(0)-x-(0)-4-44-444-55-66-7-7-77-7--------------------|
E|-0--0--0--0-0--0--0/0-(0)-2-(0)-0-00-000-00-00-0-0-00-0--------------------|

rest of the song (0:23)
staring on 0:46,1:03,1:11 the riff is played in another order

e|---------------------------------------------------------------------------|
B|---------------------------------------------------------------------------|
G|-11/13-11-9-6/13------------666-77-88-9999999999---------------------------|
D|-x-/x--x--x-x/x--4444444444-xxx-xx-xx-xxxxxxxxxx---------------------------|
A|-9-/11-9--7-4/11-xxxxxxxxxx-444-55-66-7777777777---------------------------|
E|-0-/0--0--0-0/0--2222222222-000-00-00-0000000000---------------------------|

lead guitar 0:38
obviously played with an effect
a good start to achieve this effect would be to use as much reverb as possible

e|---------------------------------------------------------------------------|
B|-7b9-14\9-7b9-14\9-9\2-----------------------------------------------------|
G|---------------------------------------------------------------------------|
D|---------------------------------------------------------------------------|
A|---------------------------------------------------------------------------|
E|---------------------------------------------------------------------------|


Enviada por Sem inscrição
Nº de acordes: 0