Blink 182

Stay Together For The Kids

Blink 182

130 exibições
Essa musica não´é muito complicada é só aprender a tocar porque a divisão ritmica é sempre a mesma.

O baixo entra no refrão.

G----------------------------------
D----------------------------------
A----------------------------------
E--3-3-3-3-3-3-3-3-3-3-3-3-3-3-3-3-
                                       4x
G----------------------------------
D----------------------------------
A----------------------------------
E--2-2-2-2-2-2-2-2-2-2-2-2-2-2-2-2-
Quando sai do refrão toqeu esta nota e deixe soar até o quando a voz entra.
G----------------
D----------------
A--5-------------
E----------------

Verso

G-------------------------      Faça devagar. 
D-------------------------       4x
A--5--5--2--2-------------
E--------------5--5--5--5-

Agora repita o refrão 4x

Interlude

G----------------------------------
D----------------------------------
A--5-5-5-5-5-5-5-5-----------------
E------------------5-5-5-5-5-5-5-5-
                                        4x
G----------------------------------
D----------------------------------
A----------------------------------
E--3-3-3-3-3-3-3-3-5-5-5-5-5-5-5-5-

Depois repita o refrão até o final da musica.
Pra facilitar a ordem é assim:

Refrão:4x
Verso:4x
Refrão:4x
Interlude:4x
Refrão: Até o final da musica

Gustavo

E-mail: punkangel@uol.com.br


Enviada por Sem inscrição
Nº de acordes: 0