Sem imagem

Black Candles

Blastt

3 exibições
  • Violão
  • Guitarra
  • Teclado
  • Cavaquinho
  • Contra-baixo
  • Bateria
  • Gaita
  • Guitar Pro
Author/Artist: Blastt
Title: Black Candles
Album: Blastt Demo Tapa
Transcribed by: F.J.
Email: fabjacob@gmail.com

enjoy!!

-------------------------|----------------|-------------------------|---------
-------------------------|----------------|--------------------88---|--10-10--
-------------------------|-----4x---------|-77-9-777-9-77-9-77------|---------
-------------------------|----------------|-------------------------|---------
-22-4-222-5-222-4-22-555-|--77-555-88-444-|--------2x---------------|---4x----
-00-2-000-3-000-2-00-333-|--55-333-66-222-|-------------------------|---------
     intro/verso 4x           chorus                 solo                     

------------------------------------------------------------------------------
-888-11-11-7-7-^--------------------------------------------------------------
------------------------------------------------------------------------------
------------------------------------------------------------------------------
------------------------------------------------------------------------------
------------------------------------------------------------------------------


Enviada por Jacob
Nº de acordes: 1