Black Sabbath

Iron Man

Black Sabbath

14.027 exibições
Intro: 
e|---------|
B|---------|
G|---------|
D|---------|
A|-4b(7)r4-|
E|-5b(8)r5-|

Verso 1:
e|-------------------------------------------------|
B|-------------------------------------------------|
G|-4----7-7---9-9----12-11-12-11-12-11--9-7--7-5-5-| 2x
D|-4----7-7---9-9----12-11-12-11-12-11--9-7--7-5-5-| 2x musica
A|-2----5-5---7-7----10-9--10-9--10-9---7-5--5-7-7-|
E|-------------------------------------------------|
Has he lost his mind? Can he see or is he blind?
Can he walk at all? Or if he moves will he fall?

Verso 1:
e|-------------------------------------------------|
B|-------------------------------------------------|
G|-4----7-7---9-9----12-11-12-11-12-11--9-7--7-5-5-| 1x
D|-4----7-7---9-9----12-11-12-11-12-11--9-7--7-5-5-| 2x musica
A|-2----5-5---7-7----10-9--10-9--10-9---7-5--5-7-7-|
E|-------------------------------------------------|
Is he 'live or dead? Has he thoughts within his head?
We'll just pass him there. Why should we even care?

Verso 2:
e|-------------------------------------------------|
B|-------------------------------------------------|
G|-------------------------------------------------| 2x
D|----------------5p4-5p4-5p4----------------------|
A|----5-5---7-7------------------5-5---7-7-----/14-|
E|-7-----------------------------------------------|

Verso 1:
e|-------------------------------------------------|
B|-------------------------------------------------|
G|-4----7-7---9-9----12-11-12-11-12-11--9-7--7-5-5-| 2x
D|-4----7-7---9-9----12-11-12-11-12-11--9-7--7-5-5-| 2x musica
A|-2----5-5---7-7----10-9--10-9--10-9---7-5--5-7-7-|
E|-------------------------------------------------|
He was turned to steel in a great magnetic field
Where he traveled time for the future of mankind

Refrão:
e|-----------|
B|-----------|
G|-----------|
D|-----------|
A|-14-----12-|
E|-12-----10-|

Riff 3:
e|--------------------------------|
B|--------------------------------|
G|--------------------------------| 2x
D|--------------------------7-8-9-|
A|-9--9----------7---7-8-9--------|
E|-7--7---7---10------------------|
Nobody wants him. He just stares at the world

Refrão:
e|-----------|
B|-----------|
G|-----------|
D|-----------|
A|-14-----12-|
E|-12-----10-|

Riff 3:
e|--------------------------------|
B|--------------------------------|
G|--------------------------------| 2x
D|--------------------------7-8-9-|
A|-9--9----------7---7-8-9--------|
E|-7--7---7---10------------------|
Planning his vengeance that he will soon unfurl

Verso 1:
e|-------------------------------------------------|
B|-------------------------------------------------|
G|-4----7-7---9-9----12-11-12-11-12-11--9-7--7-5-5-| 4x
D|-4----7-7---9-9----12-11-12-11-12-11--9-7--7-5-5-|
A|-2----5-5---7-7----10-9--10-9--10-9---7-5--5-7-7-|
E|-------------------------------------------------|
Now the time is here for Iron Man to spread fear
Vengeance from the grave kills the people he once saved

Refrão:
e|-----------|
B|-----------|
G|-----------|
D|-----------|
A|-14-----12-|
E|-12-----10-|

Riff 3:
e|--------------------------------|
B|--------------------------------|
G|--------------------------------| 2x
D|--------------------------7-8-9-|
A|-9--9----------7---7-8-9--------|
E|-7--7---7---10------------------|
Nobody wants him. They just turn their heads

Refrão:
e|-----------|
B|-----------|
G|-----------|
D|-----------|
A|-14-----12-|
E|-12-----10-|

Riff 3:
e|--------------------------------|
B|--------------------------------|
G|--------------------------------| 2x
D|--------------------------7-8-9-|
A|-9--9----------7---7-8-9--------|
E|-7--7---7---10------------------|
Nobody helps him. Now he has his revenge

Riff 4:
e|----------------------------------|
B|----------------------------------|
G|----------------------------------| 2x
D|-11--9----------------------------|
A|--------11--10--9---7-------------|
E|----------------------7-7--h--9-9-|

Solo 1: 
e|----------------------------------------------------------|
B|---------------------------------5----------5-5-----------|
G|-------------------------4-4-4h6---6--6p4-------6p4---4h6-|
D|-----2-2h4-4p2---2-4-4/6------------------6---------6-----|
A|-2-4-----------4------------------------------------------|
E|----------------------------------------------------------|

e|-------------9-----------------------------------9-----------------|
B|-------------9--12p9-----9-------------------------12-9-----9-12-9-|
G|-6---11-11^----------11----9-9^------------9-11^-------11-9--------|
D|---------------------------------11-9-9h11-------------------------|
A|-------------------------------------------------------------------|
E|-------------------------------------------------------------------|

e|------------------9-12^----9--------12^---12^^12---12^^12-12-9----9--------|
B|----9-12-9------9---12^------12-9-9----------------------------12---12-12^-|
G|-11--------11-9------------------------------------------------------------|
D|---------------------------------------------------------------------------|
A|---------------------------------------------------------------------------|
E|---------------------------------------------------------------------------|

e|-----9---------9------------------------------------------------------|
B|-12^---129---9---12-9-------------------------------------------------|
G|----------11----------11-11p9---9-9--------------9-9--------------9---|
D|-----------------------------11-----11p9----9h11-----11p9----9-11-9-9-|
A|-----------------------------------------11---------------11----------|
E|----------------------------------------------------------------------|

e|--------------------------------------------|
B|--------------------------------------------|
G|------------------------6-4-----------------|
D|-9h11-9h11-9h11-9h11--------6-5-4-2---------|
A|------------------------------------2-2/4-4-|
E|--------------------------------------------|

Riff 4:
e|----------------------------------|
B|----------------------------------|
G|----------------------------------| 2x
D|-11--9----------------------------|
A|--------11--10--9---7-------------|
E|----------------------7-7--h--9-9-|

Riff 3:
e|--------------------------------|
B|--------------------------------|
G|--------------------------------| 2x
D|--------------------------7-8-9-|
A|-9--9----------7---7-8-9--------|
E|-7--7---7---10------------------|

Verso 1:
e|-------------------------------------------------|
B|-------------------------------------------------|
G|-4----7-7---9-9----12-11-12-11-12-11--9-7--7-5-5-| 4x
D|-4----7-7---9-9----12-11-12-11-12-11--9-7--7-5-5-|
A|-2----5-5---7-7----10-9--10-9--10-9---7-5--5-7-7-|
E|-------------------------------------------------|
Heavy bolts of lead, fills his victims full of dread
Running as fast as they can, Iron Man lives again

Riff 6:
e|-----------------------------------|
B|-----------------------------------|
G|-----------------------------------| 2x
D|-----------------------------------|
A|-------5---------------------------|
E|-7--7-----7--6--5-5-5--0-4--5-5--6-|

Riff 2:
e|-----------------------------|
B|-----------------------------|
G|-----------------------------| 1x
D|-----------------------------|
A|-------5---------------------|
E|-7--7----7--6--5-5-5b(7)--r5-|

Intro: 
e|---------|
B|---------|
G|---------|
D|---------|
A|-4b(7)r4-|
E|-5b(8)r5-|

Riff 5:
e|-------------------------------------------|
B|-------------------------------------------|
G|-------------------------------------------| 2x
D|---------------------------4-5-4-5p4h5p4p0-|
A|-7h5-7---5h7p5-----7h5-7-------------------|
E|-------------------------------------------|

Solo 2:
e|-----------------------------------------------|
B|-----------------------------------------------|
G|-------------7---7-9-9^^^--9^^^---9^^--7---7/9-|
D|-----5---7/9---9-------------------------9-----|
A|-6/7---7---------------------------------------|
E|-----------------------------------------------|

e|-----------10-10h12-12^-12^-12^^-10-12p10-----10---------------------|
B|-8---10/12---------------------------------------12-1210-8-11-8------|
G|---9--------------------------------------12---------------------9-7-|
D|---------------------------------------------------------------------|
A|---------------------------------------------------------------------|
E|---------------------------------------------------------------------|

e|-----------------------------------------------------|
B|-----------------------------------------------------|
G|----------------------------------7---7-9-9^^-9^^-9^-|
D|-9-7-5--7p5----5h7-------5-7-7/9---9-----------------|
A|-------------7------5h7------------------------------|
E|-----------------------------------------------------|

e|------------------------------------------------------|
B|------------------------------------------------------|
G|-9^-9^^-9p7----7--------------------------------------|
D|------------9------9-7-5-7---5-7-7^^--7^^--7^^^-5-----|
A|----------------------------------------------------7-|
E|------------------------------------------------------|

Riff 5:
e|-------------------------------------------|
B|-------------------------------------------|
G|-------------------------------------------| 3x
D|---------------------------4-5-4-5p4h5p4p0-|
A|-7h5-7---5h7p5-----7h5-7-------------------|
E|-------------------------------------------|


Enviada por Sem inscrição
Nº de acordes: 0