Ashes Remain

End Of Me

Ashes Remain

403 exibições
  • Violão
  • Guitarra
  • Teclado
  • Cavaquinho
  • Contra-baixo
  • Bateria
  • Gaita
  • Guitar Pro
Intro: 
C]-0-0------0-0-------0-0------3-3-3-2-2-2-0-0-]
G]---------------------------------------------]
C]-----7-5-7----5-3-5----7-5-7-----------------]
F]---------------------------------------------]
A]---------------------------------------------]
D]---------------------------------------------]

C]-0-0-------0-0-------0-0-------3-3-3-7-7-7-7-0-]
G]-------------------------------3-3-3-7-7-7-7-0-]
C]-----7-5-7-----5-3-5-----7-5-7-3-3-3-7-7-7-7-0-]
F]-----------------------------------------------]
A]-----------------------------------------------]
D]-----------------------------------------------]

Interlude
C]-0-0-7-5-7-0-0-5-3-5-0-0-7-5-7-3-3-3-2-2-0-0-]
G]-0-0-7-5-7-0-0-5-3-5-0-0-7-5-7-3-3-3-2-2-0-0-]
C]-0-0-7-5-7-0-0-5-3-5-0-0-7-5-7-3-3-3-2-2-0-0-]
F]---------------------------------------------]
A]---------------------------------------------]
D]---------------------------------------------]

C]-0-0-7-5-7-0-0-5-3-5-0-0-7-5-7-3-3-3-7-7-7-0-]
G]-0-0-7-5-7-0-0-5-3-5-0-0-7-5-7-3-3-3-7-7-7-0-]
C]-0-0-7-5-7-0-0-5-3-5-0-0-7-5-7-3-3-3-7-7-7-0-]
F]---------------------------------------------]
A]---------------------------------------------]
D]---------------------------------------------]

Verse:
riff 1
C]0-0-7-5-7-0-0-5-3-5-0-0-7-5-7-3-3-3-2-2-0-]
G]------------------------------------------]
C]------------------------------------------]
F]------------------------------------------] 4x
A]------------------------------------------]
D]------------------------------------------]
  ******************************************

riff 2
C]-0-0------0-0-------0-0------3-3-3-2-2-2-0-0-]
G]---------------------------------------------]
C]-----7-5-7----5-3-5----7-5-7-----------------]
F]---------------------------------------------] 4x
A]---------------------------------------------]
D]---------------------------------------------]


Chorus:
C]-----------------8-8-8-8-8-8-8-8-3-3-3-3-3-3-3-3-----------------]
G]-5-5-5-5-5-5-5-5-8-8-8-8-8-8-8-8-3-3-3-3-3-3-3-3-3-3-3-3-3-3-3-3-]
C]-7-7-7-7-7-7-7-7-8-8-8-8-8-8-8-8-3-3-3-3-3-3-3-3-5-5-5-5-5-5-5-5-]
F]-7-7-7-7-7-7-7-7---------------------------------5-5-5-5-5-5-5-5-]
A]-----------------------------------------------------------------]
D]-----------------------------------------------------------------]

C]-----------------8-8-8-8-8-8-8-8-3-3-3-3-3-3-3-3-5-5-5-5-5-5-5-5-]
G]-5-5-5-5-5-5-5-5-8-8-8-8-8-8-8-8-3-3-3-3-3-3-3-3-5-5-5-5-5-5-5-5-]
C]-7-7-7-7-7-7-7-7-8-8-8-8-8-8-8-8-3-3-3-3-3-3-3-3-5-5-5-5-5-5-5-5-]
F]-7-7-7-7-7-7-7-7-------------------------------------------------]
A]-----------------------------------------------------------------]
D]-----------------------------------------------------------------]

2nd guitar part during Solo:
C]-0-0-0---0-0-0-3-3-2-2-0-0-0---0-0-0-3-3-2-2-0-0-]
G]-0-0-0---0-0-0-3-3-2-2-0-0-0---0-0-0-3-3-2-2-0-0-]
C]-0-0-0---0-0-0-3-3-2-2-0-0-0---0-0-0-3-3-2-2-0-0-]
F]-------------------------------------------------] 2x
A]-------------------------------------------------]
D]-------------------------------------------------]

then...
C]-3~-]
G]-3~-]
C]-3~-]
F]----]
A]----]
D]----]


order:

intro
interlude
verse:
riff 1
riff 2
chorus
interlude
verse:
riff 1
chorus
solo
chorus 2x


Enviada por Sem inscrição
Nº de acordes: 0