Arctic Monkeys

Do I Wanna Know

Arctic Monkeys

2.737 exibições
  • Violão
  • Guitarra
  • Teclado
  • Cavaquinho
  • Contra-baixo
  • Bateria
  • Gaita
  • Guitar Pro
Intro

E|--------------------------------------------------------------|
B|--------------------------------------------------------------|
G|--------------------------------------------------------------|
D|-------------------1/3--1---------------0---------------------|  
A|------1-----------1---------3/5-3---1-3---3----1-3-3h5-3h5----|
E|---1-3--3------1-3------------------------------------------3-|

Repeat intro that 5 times because it goes over Verse number 1

Pre-chorus

E|--------------------------------------------------------------|
B|--------------------------------------------------------------|
G|--------------------------------------------------------------|
D|-------------------1/3--1---------------0---------------------|  
A|------1-----------1---------3/5-3---1-3---3----5----5/1-------|
E|---1-3--3------1-3--------------------------------------------|

E|-----------------------------------------------------------|
B|-----------------------------------------------------------|
G|-----------------------------------------------------------|
D|------------------------------0----------------------------|  
A|----3h5--6-5-3---1-3----1-3--------------------------------|
E|---------------------------------3-------------------------|

E|---------------------------------------------------------|
B|---------------------------------------------------------|
G|---------------------------------------------------------|
D|---------------5/1--------------------------------0------|
A|-------1----------------3h5---6-5-3----1-3---1-3---------|
E|---1-3----3----------------------------------------3----3|


Chorus number one - same as Intro


Verse number two - at beginning bass ->

E|-----------------------------------------------------------------|
B|-----------------------------------------------------------------|
G|-----------------------------------------------------------------|
D|--------------------3/1----------------0-------------------------|  
A|------------------1------3/5--3----1-3---3----1-3--3h5--3h5------|
E|--------3------1-3---------------------------------------------3-|

E|---------------------------------------------------------|
B|---------------------------------------------------------|
G|---------------------------------------------------------|
D|--------------------3/1----------------0---------5/1-----|  
A|------------------1------3/5--3----1-3---3----5----------|
E|--------3------1-3---------------------------------------|

E|----------------------------------------------------------|
B|----------------------------------------------------------|
G|----------------------------------------------------------|
D|-----------------------------0----------------------------|  
A|----3h5--6-5-3---1-3----1-3-------------------------------|
E|--------------------------------3-------------------------|

E|---------------------------------------------------------|
B|---------------------------------------------------------|
G|---------------------------------------------------------|
D|---------------5/1-------------------------------0-------|
A|-------1----------------3h5---6-5-3----1-3---1-3---------|
E|---1-3---3-----------------------------------------3-----|


E|--------------------------------------------------------|
B|--------------------------------------------------------|
G|--------------------------------------------------------|
D|--------------------------------------------------------|  
A|-------1------------------------------------------------|
E|---1-3---3----------------------------------------------|


Chorus number two


E|--------------------------------------------------------------------|
B|--------------------------------------------------------------------|
G|--------------------------------------------------------------------|
D|----------------------3/1-1---------------0-------------------------| 
A|-------1------------1-------3/5--3----1-3---3----1-3-3h5--3h5-------|
E|---1-3---3------1-3-----------------------------------------------3-|

Two times ^

Jamie

E|-------------------------------------------------------|
B|-------------------------------------------------------|
G|----12-14-12-14--15-17-14-15---------------------------|
D|-------------------------------------------------------|  
A|-------------------------------------------------------|
E|-------------------------------------------------------|


E|-------------------------------------------------------|
B|-------------------------------------------------------|
G|-------------------------------------------------------|
D|-----5/1---------------------------------0-------------|
A|--------------3h5---6-5-3----1-3---1-3-----------------|
E|-------------------------------------------3-----------|

E|---------------------------------------------------------|
B|---------------------------------------------------------|
G|---------------------------------------------------------|
D|---------------5/1-------------------------------0-------|
A|-------1----------------3h5---6-5-3----1-3---1-3---------|
E|---1-3---3-----------------------------------------3-----|

Three times ^

E|---------------------------------------------------------|
B|---------------------------------------------------------|
G|---------------------------------------------------------|
D|-------0-------------------0----------------0------------|  
A|---1-3-----------------1-3--------------1-3--------------|
E|--------3-------3------------3------3---------3----3---3~|


Enviada por Sem inscrição
Nº de acordes: 0