Arctic Monkeys

Crying Lightning

Arctic Monkeys

1.166 exibições
  • Violão
  • Guitarra
  • Teclado
  • Cavaquinho
  • Contra-baixo
  • Bateria
  • Gaita
  • Guitar Pro
G|----------------------------------------------------------------------------|
D|---------------0-3-------------3-2-------------0-5-3-2-0---0-2-3------------|
A|---------0-2-3-----------0-2-3-----------0-2-3-----------3---------0-2-3-0--|
E|---0-1-4-----------0-1-4-----------0-1-4-------------------------4----------|



E|----5----------7-----5-----8-----------|
B|--5----------------5-----8----8-9------|
G|5----------------5-----9---------------|
D|---------------------------------------|
A|---------------------------------------|
E|---------------------------------------|



E|----5-------7----5----------8----------|
B|----5------------5--------8----8-9/17--|
G|----5------------5------9--------------|
D|---------------------------------------|
A|---------------------------------------|
E|---------------------------------------|


(bridge)

E|--------------------|----------------------|
B|--------------------|----------------------|
G|--------------------|----------------------|
D|--------------------|----------------------|
A|----------7-6----x8-|---7---6-------6------|
E|5-5-5-5-8-----4-----|-8---4---5-8-7-----x4-|


(Cookies Guitar For Verse 2)

e |5/13--5/12--5/10--8\4-|  |5/13--17\12--5/10--8\4-|
B|----------------------|  |-----------------------|
G|----------------------|  |-----------------------|
D|----------------------|2x|-----------------------|
A|----------------------|  |-----------------------|
E|----------------------|  |-----------------------|


(Alex Guitar For Verse 2)


G|-------------------------------------------------------------------------|
D|---------------0-3-------------3-2-------------0-5-3-2-0---0-2-3---------|
A|---------0-2-3-----------0-2-3-----------0-2-3-----------3---------0-2-3-|
E|---0-1-4-----------0-1-4-----------0-1-4-------------------------4-------|


(refrão)

( F Dm Am )

(riff)

E|------------10--------------5|
B|------------10--------------5|
G|---9-7------10----9-7-------5|
D|10-----7-10-----10-----10-7--|
A|-----------------------------|
E|-----------------------------|


(solo)


G|-2/5/7\5/7---5/7\5/7\5---5/7\5/9--5/7\5----5/7\5/9--5/7\5/14--12/14\12\9--12/14\12\9--5/7\5/7--|
D|----------------------7----------------7-----------------------------------------------------7-|
A|-----------------------------------------------------------------------------------------------|
E|-----------------------------------------------------------------------------------------------|


(bridge)


E|----------------|
B|----------------|
G|----------------|
D|----------------|
A|----------7-6---|
E|5-5-5-5-8-----4-| (4x)


D|---------------------|
A|---7---6-------6-----|
E|-8---4---5-8-7------3|


Enviada por Sem inscrição
Nº de acordes: 3