Allister

Somewhere On Fullerton

Allister

2 exibições
By:Andrew Mcshan(Guitarguyx182@aol.com)

Intro
e|-----x------------------------------------------------------|
B|-----x------------------------------------------------------|
G|-8-8-x-8-8----------------8-8-------------------------------|
D|-8-8-x-8-8-8-8--6-6-6-6---8-8--8-8-6-6-8--------------------|
A|-6-6-x-6-8-8-8--6-6-6-6---6-6--8-8-6-6-8--------------------|
E|-----x-----6-6--4-4-4-4--------6-6-4-4-6--------------------|
Palm Mute..................

Verse 
e|-----x------------------------------------------------------|
B|-----x------------------------------------------------------|
G|-8-8-x-8-8----------------8-8-------------------------------|
D|-8-8-x-8-8-8-8--6-6-6-6---8-8--8-8-6-6-8--------------------|
A|-6-6-x-6-8-8-8--6-6-6-6---6-6--8-8-6-6-8--------------------|
E|-----x-----6-6--4-4-4-4--------6-6-4-4-6--------------------|

Chorus
e|------------------------------------------------------------|
B|------------------------------------------------------------|
G|-8----------------------------------------------------------|
D|-8-8-5--6---------------------------------------------------|
A|-6-8-5--6---------------------------------------------------|
E|---6-3--4---------------------------------------------------|

In Verse 2 GUitar 2 Does this alot of times 
e|------------------------------------------------------------|
B|------------------------------------------------------------|
G|-8----------------------------------------------------------|
D|-x----------------------------------------------------------|
A|-6----------------------------------------------------------|
E|------------------------------------------------------------|

Bridge
e|------------------------------------------------------------|
B|------------------------------------------------------------|
G|--8-8-8-----8-----------------------------------------------|
D|--8-8-x-8-8-x-6-6-10-8--------------------------------------|
A|--6-6-6-8-8-6-6-6-10-8--------------------------------------|
E|--------6-6---4-4--8-6--------------------------------------|

e|--6---6-4-3-4-6---6-4--3-4-8--------------------------------|
B|-----4-------------4----------------------------------------|
G|------------------------------------------------------------|
D|------------------------------------------------------------|
A|------------------------------------------------------------|
E|------------------------------------------------------------|

e|------------------------------------------------------------|
B|------------------------------------------------------------|
G|--8-8-8-----8-----------------------------------------------|
D|--8-8-x-8-8-x-6-6-10-8--------------------------------------|
A|--6-6-6-8-8-6-6-6-10-8--------------------------------------|
E|--------6-6---4-4--8-6--------------------------------------|



Enviada por Sem inscrição
Nº de acordes: 0