Allister

Racecars

Allister

0 exibições
Tabbed by:Tom Dillon
Screen Name:FinchPunk7658
Band Site:www.allisterrock.com

p.m=Palm Muted
Intro/Verse:Light Distortion
e------------------------------\
b------------------------------ \
G----------------------9-9-9---  \
D-7-7-7-9-9-9-12-12-12-9-9-9---  /x9
A-7-7-7-9-9-9-12-12-12-7-7-7--- /
E-5-5-5-7-7-7-10-10-10---------/
  | |   | |    | |     | |
  p.m   p.m    p.m     p.m

Pre-Chorus:
e-----------------------------------------------------------------\
b----------------------------------------------------------------- \
G-7-7-7-7-7-7-7-7-9-9-9-9-9-9-9-9---------------------------------  \
D-7-7-7-7-7-7-7-7-9-9-9-9-9-9-9-9-7-7-7-7-7-7-7-7-4-4-4-4-4-4-4-4-  /x2
A-5-5-5-5-5-5-5-5-7-7-7-7-7-7-7-7-7-7-7-7-7-7-7-7-4-4-4-4-4-4-4-4- /
E---------------------------------5-5-5-5-5-5-5-5-2-2-2-2-2-2-2-2-/

e------------------------------\
b------------------------------ \
G-7-7-7-7-7-7-7-7--9-----------  \
D-7-7-7-7-7-7-7-7--9--Let Ring-  /x1
A-5-5-5-5-5-5-5-5--7----------- /
E------------------------------/

Chorus:
e---------------------------------\
b--------------------------------- \
G-----------------9-9-9-9-9-9-9-9-  \
D-7-7-7-7-9-9-9-9-9-9-9-9-9-9-9-9-  /x4
A-7-7-7-7-9-9-9-9-7-7-7-7-7-7-7-7- /
E-5-5-5-5-7-7-7-7-----------------/

e----------------------------------
b------------------6-6-6-6-6-6-6-6-
G-7-7-7-7-7-7-7-7--7-7-7-7-7-7-7-7-
D-7-7-7-7-7-7-7-7--7-7-7-7-7-7-7-7-
A-5-5-5-5-5-5-5-5--5-5-5-5-5-5-5-5-
E----------------------------------
      \___p.m___/

e-(Guitar 2 only)-
b-----------------
G-----------------
D-5-5-------------
A-5-5-------------
E-7-7-------------

Verse:(Guitar 1)
e------------------------------\
b------------------------------ \
G----------------------9-9-9---  \
D-7-7-7-9-9-9-12-12-12-9-9-9---  /x9
A-7-7-7-9-9-9-12-12-12-7-7-7--- /
E-5-5-5-7-7-7-10-10-10---------/
  | |   | |    | |     | |
  p.m   p.m    p.m     p.m

Verse:(Guitar 2)
e--------
b---10---
G-9------
D--------
A--------
E--------

Pre-Chorus:
e-----------------------------------------------------------------\
b----------------------------------------------------------------- \
G-7-7-7-7-7-7-7-7-9-9-9-9-9-9-9-9---------------------------------  \
D-7-7-7-7-7-7-7-7-9-9-9-9-9-9-9-9-7-7-7-7-7-7-7-7-4-4-4-4-4-4-4-4-  /x2
A-5-5-5-5-5-5-5-5-7-7-7-7-7-7-7-7-7-7-7-7-7-7-7-7-4-4-4-4-4-4-4-4- /
E---------------------------------5-5-5-5-5-5-5-5-2-2-2-2-2-2-2-2-/

e------------------------------\
b------------------------------ \
G-7-7-7-7-7-7-7-7--9-----------  \
D-7-7-7-7-7-7-7-7--9--Let Ring-  /x1
A-5-5-5-5-5-5-5-5--7----------- /
E------------------------------/

Chorus:
e---------------------------------\
b--------------------------------- \
G-----------------9-9-9-9-9-9-9-9-  \
D-7-7-7-7-9-9-9-9-9-9-9-9-9-9-9-9-  /x4
A-7-7-7-7-9-9-9-9-7-7-7-7-7-7-7-7- /
E-5-5-5-5-7-7-7-7-----------------/

e----------------------------------
b------------------6-6-6-6-6-6-6-6-
G-7-7-7-7-7-7-7-7--7-7-7-7-7-7-7-7-
D-7-7-7-7-7-7-7-7--7-7-7-7-7-7-7-7-
A-5-5-5-5-5-5-5-5--5-5-5-5-5-5-5-5-
E----------------------------------
      \___p.m___/

Interlude:(Guitar1)
e-------------------------------------------------------------
b-------------------------------------------------------------
G---------------------------------------------7-7-7-7-7-7-7-7-
D-------7-7---9-9---9-9-(x3)--7-7-7-7-7-7-7-7-7-7-7-7-7-7-7-7-
A-7-7---5-5---7-7---7-7-------7-7-7-7-7-7-7-7-5-5-5-5-5-5-5-5-
E-5-5-------------------------5-5-5-5-5-5-5-5-----------------

Interlude:(Guitar2)
e------------------------------------------------------------
b-10-10-10-10-10-12h14p12-(X3)-10-9-7-9-5--------------------
G------------------------------------------------------------
D------------------------------------------------------------
A------------------------------------------------------------
E------------------------------------------------------------

Chorus:
e---------------------------------\
b--------------------------------- \
G-----------------9-9-9-9-9-9-9-9-  \
D-7-7-7-7-9-9-9-9-9-9-9-9-9-9-9-9-  /x4
A-7-7-7-7-9-9-9-9-7-7-7-7-7-7-7-7- /
E-5-5-5-5-7-7-7-7-----------------/

e----------------------------------
b------------------6-6-6-6-6-6-6-6-
G-7-7-7-7-7-7-7-7--7-7-7-7-7-7-7-7-
D-7-7-7-7-7-7-7-7--7-7-7-7-7-7-7-7-
A-5-5-5-5-5-5-5-5--5-5-5-5-5-5-5-5-
E----------------------------------
      \___p.m___/



Enviada por Sem inscrição
Nº de acordes: 0