Allister

Jacob Thinks Im Gay

Allister

12 exibições
Tabbed by Jared Cope

Intro
E-------------------------------------------------------
B-------------------------------------------------------
G---------------10----8-8-8-----10-8-8-8----------------
D-6-6-XX-6-6-XX-10-11-8-8-8--11-10-8-8-8----------------
A-6-6-XX-6-6-XX--8-11-6-6-6--11--8-6-6-6----------------
E-4-4-XX-4-4-XX-----9---------9-------------------------

Verse #1 ("Jacob Stands Outside The Door")(2nd Part Chorus)
E-------------------------------------------------------
B-------------------------------------------------------
G-----------------6-6-6-6-8-8-8-8-----------------------
D-6-6-6-6-3-3-3-3-6-6-6-6-8-8-8-8-----------------------
A-6-6-6-6-3-3-3-3-4-4-4-4-6-6-6-6-----------------------
E-4-4-4-4-1-1-1-1---------------------------------------

First Part Chorus ("And Even If A Boy Likes Me")
E-------------------------------------------------------
B-------------------------------------------------------
G-6-6-6-6---------6-6-6-6-8-8-8-8-----------------------
D-6-6-6-6-8-8-8-8-6-6-6-6-8-8-8-8-----------------------
A-4-4-4-4-8-8-8-8-4-4-4-4-6-6-6-6-----------------------
E---------6-6-6-6---------------------------------------



Enviada por Sem inscrição
Nº de acordes: 0